  0
SECTION
  2
HEADER
  9
$ACADVER
  1
AC1015
  9
$ACADMAINTVER
 70
    10
  9
$DWGCODEPAGE
  3
ANSI_1252
  9
$INSBASE
 10
0.0
 20
0.0
 30
0.0
  9
$EXTMIN
 10
0.2396850844841545
 20
0.2396850786633848
 30
-0.0015258207003583
  9
$EXTMAX
 10
10.76031496673859
 20
8.260314960917824
 30
0.0000000349246037
  9
$LIMMIN
 10
0.0
 20
0.0
  9
$LIMMAX
 10
11.0
 20
8.5
  9
$ORTHOMODE
 70
     1
  9
$REGENMODE
 70
     1
  9
$FILLMODE
 70
     1
  9
$QTEXTMODE
 70
     0
  9
$MIRRTEXT
 70
     1
  9
$LTSCALE
 40
0.5
  9
$ATTMODE
 70
     1
  9
$TEXTSIZE
 40
0.1
  9
$TRACEWID
 40
0.05
  9
$TEXTSTYLE
  7
ROMAND
  9
$CLAYER
  8
0
  9
$CELTYPE
  6
ByLayer
  9
$CECOLOR
 62
   256
  9
$CELTSCALE
 40
1.0
  9
$DISPSILH
 70
     0
  9
$DIMSCALE
 40
1.0
  9
$DIMASZ
 40
0.18
  9
$DIMEXO
 40
0.06
  9
$DIMDLI
 40
0.25
  9
$DIMRND
 40
0.0
  9
$DIMDLE
 40
0.0
  9
$DIMEXE
 40
0.06
  9
$DIMTP
 40
0.0
  9
$DIMTM
 40
0.0
  9
$DIMTXT
 40
0.1
  9
$DIMCEN
 40
0.06
  9
$DIMTSZ
 40
0.0
  9
$DIMTOL
 70
     0
  9
$DIMLIM
 70
     0
  9
$DIMTIH
 70
     0
  9
$DIMTOH
 70
     0
  9
$DIMSE1
 70
     0
  9
$DIMSE2
 70
     0
  9
$DIMTAD
 70
     0
  9
$DIMZIN
 70
     0
  9
$DIMBLK
  1

  9
$DIMASO
 70
     1
  9
$DIMSHO
 70
     0
  9
$DIMPOST
  1

  9
$DIMAPOST
  1

  9
$DIMALT
 70
     0
  9
$DIMALTD
 70
     2
  9
$DIMALTF
 40
25.4
  9
$DIMLFAC
 40
1.0
  9
$DIMTOFL
 70
     0
  9
$DIMTVP
 40
0.0
  9
$DIMTIX
 70
     0
  9
$DIMSOXD
 70
     0
  9
$DIMSAH
 70
     0
  9
$DIMBLK1
  1

  9
$DIMBLK2
  1

  9
$DIMSTYLE
  2
Standard
  9
$DIMCLRD
 70
     0
  9
$DIMCLRE
 70
     0
  9
$DIMCLRT
 70
     0
  9
$DIMTFAC
 40
1.0
  9
$DIMGAP
 40
0.06
  9
$DIMJUST
 70
     0
  9
$DIMSD1
 70
     0
  9
$DIMSD2
 70
     0
  9
$DIMTOLJ
 70
     1
  9
$DIMTZIN
 70
     0
  9
$DIMALTZ
 70
     0
  9
$DIMALTTZ
 70
     0
  9
$DIMUPT
 70
     0
  9
$DIMDEC
 70
     3
  9
$DIMTDEC
 70
     3
  9
$DIMALTU
 70
     2
  9
$DIMALTTD
 70
     2
  9
$DIMTXSTY
  7
ROMAND
  9
$DIMAUNIT
 70
     0
  9
$DIMADEC
 70
     0
  9
$DIMALTRND
 40
0.0
  9
$DIMAZIN
 70
     0
  9
$DIMDSEP
 70
    46
  9
$DIMATFIT
 70
     3
  9
$DIMFRAC
 70
     0
  9
$DIMLDRBLK
  1

  9
$DIMLUNIT
 70
     2
  9
$DIMLWD
 70
    -2
  9
$DIMLWE
 70
    -2
  9
$DIMTMOVE
 70
     0
  9
$LUNITS
 70
     2
  9
$LUPREC
 70
     3
  9
$SKETCHINC
 40
0.1
  9
$FILLETRAD
 40
0.045
  9
$AUNITS
 70
     0
  9
$AUPREC
 70
     0
  9
$MENU
  1
acad
  9
$ELEVATION
 40
0.0
  9
$PELEVATION
 40
0.0
  9
$THICKNESS
 40
0.0
  9
$LIMCHECK
 70
     0
  9
$CHAMFERA
 40
0.0
  9
$CHAMFERB
 40
0.0
  9
$CHAMFERC
 40
0.0
  9
$CHAMFERD
 40
0.0
  9
$SKPOLY
 70
     0
  9
$TDCREATE
 40
2453549.466357870
  9
$TDUCREATE
 40
2453549.674691203
  9
$TDUPDATE
 40
2458493.373579942
  9
$TDUUPDATE
 40
2458493.581913276
  9
$TDINDWG
 40
0.1560242130
  9
$TDUSRTIMER
 40
0.1560242130
  9
$USRTIMER
 70
     1
  9
$ANGBASE
 50
0.0
  9
$ANGDIR
 70
     0
  9
$PDMODE
 70
     0
  9
$PDSIZE
 40
0.0
  9
$PLINEWID
 40
0.1
  9
$SPLFRAME
 70
     0
  9
$SPLINETYPE
 70
     6
  9
$SPLINESEGS
 70
     8
  9
$HANDSEED
  5
359D
  9
$SURFTAB1
 70
     6
  9
$SURFTAB2
 70
     6
  9
$SURFTYPE
 70
     6
  9
$SURFU
 70
     6
  9
$SURFV
 70
     6
  9
$UCSBASE
  2

  9
$UCSNAME
  2

  9
$UCSORG
 10
0.0
 20
0.0
 30
0.0
  9
$UCSXDIR
 10
1.0
 20
0.0
 30
0.0
  9
$UCSYDIR
 10
0.0
 20
1.0
 30
0.0
  9
$UCSORTHOREF
  2

  9
$UCSORTHOVIEW
 70
     0
  9
$UCSORGTOP
 10
0.0
 20
0.0
 30
0.0
  9
$UCSORGBOTTOM
 10
0.0
 20
0.0
 30
0.0
  9
$UCSORGLEFT
 10
0.0
 20
0.0
 30
0.0
  9
$UCSORGRIGHT
 10
0.0
 20
0.0
 30
0.0
  9
$UCSORGFRONT
 10
0.0
 20
0.0
 30
0.0
  9
$UCSORGBACK
 10
0.0
 20
0.0
 30
0.0
  9
$PUCSBASE
  2

  9
$PUCSNAME
  2

  9
$PUCSORG
 10
0.0
 20
0.0
 30
0.0
  9
$PUCSXDIR
 10
1.0
 20
0.0
 30
0.0
  9
$PUCSYDIR
 10
0.0
 20
1.0
 30
0.0
  9
$PUCSORTHOREF
  2

  9
$PUCSORTHOVIEW
 70
     0
  9
$PUCSORGTOP
 10
0.0
 20
0.0
 30
0.0
  9
$PUCSORGBOTTOM
 10
0.0
 20
0.0
 30
0.0
  9
$PUCSORGLEFT
 10
0.0
 20
0.0
 30
0.0
  9
$PUCSORGRIGHT
 10
0.0
 20
0.0
 30
0.0
  9
$PUCSORGFRONT
 10
0.0
 20
0.0
 30
0.0
  9
$PUCSORGBACK
 10
0.0
 20
0.0
 30
0.0
  9
$USERI1
 70
     0
  9
$USERI2
 70
     0
  9
$USERI3
 70
     0
  9
$USERI4
 70
     0
  9
$USERI5
 70
     0
  9
$USERR1
 40
0.0
  9
$USERR2
 40
0.0
  9
$USERR3
 40
0.0
  9
$USERR4
 40
0.0
  9
$USERR5
 40
0.0
  9
$WORLDVIEW
 70
     1
  9
$SHADEDGE
 70
     3
  9
$SHADEDIF
 70
    70
  9
$TILEMODE
 70
     1
  9
$MAXACTVP
 70
    16
  9
$PINSBASE
 10
0.0
 20
0.0
 30
0.0
  9
$PLIMCHECK
 70
     0
  9
$PEXTMIN
 10
1.000000000000000E+20
 20
1.000000000000000E+20
 30
1.000000000000000E+20
  9
$PEXTMAX
 10
-1.000000000000000E+20
 20
-1.000000000000000E+20
 30
-1.000000000000000E+20
  9
$PLIMMIN
 10
-0.1249995194082185
 20
-0.1249999981226883
  9
$PLIMMAX
 10
10.87500024029589
 20
8.375000362321149
  9
$UNITMODE
 70
     0
  9
$VISRETAIN
 70
     0
  9
$PLINEGEN
 70
     1
  9
$PSLTSCALE
 70
     1
  9
$TREEDEPTH
 70
  3020
  9
$CMLSTYLE
  2
Standard
  9
$CMLJUST
 70
     0
  9
$CMLSCALE
 40
1.0
  9
$PROXYGRAPHICS
 70
     1
  9
$MEASUREMENT
 70
     0
  9
$CELWEIGHT
370
    -1
  9
$ENDCAPS
280
     0
  9
$JOINSTYLE
280
     0
  9
$LWDISPLAY
290
     0
  9
$INSUNITS
 70
     0
  9
$HYPERLINKBASE
  1

  9
$STYLESHEET
  1
monochrome.stb
  9
$XEDIT
290
     1
  9
$CEPSNTYPE
380
     2
  9
$PSTYLEMODE
290
     0
  9
$FINGERPRINTGUID
  2
{FD40C69E-115F-44C5-8F58-837690828DCB}
  9
$VERSIONGUID
  2
{96F5A6EC-4C15-40EB-ABF9-B9C8A7AA9660}
  9
$EXTNAMES
290
     1
  9
$PSVPSCALE
 40
0.0
  9
$OLESTARTUP
290
     0
  0
ENDSEC
  0
SECTION
  2
CLASSES
  0
CLASS
  1
ACDBDICTIONARYWDFLT
  2
AcDbDictionaryWithDefault
  3
AutoCAD 2000
 90
        0
280
     0
281
     0
  0
CLASS
  1
ACDBPLACEHOLDER
  2
AcDbPlaceHolder
  3
AutoCAD 2000
 90
        0
280
     0
281
     0
  0
CLASS
  1
LAYOUT
  2
AcDbLayout
  3
AutoCAD 2000
 90
        0
280
     0
281
     0
  0
CLASS
  1
DICTIONARYVAR
  2
AcDbDictionaryVar
  3
AutoCAD 2000
 90
        0
280
     0
281
     0
  0
ENDSEC
  0
SECTION
  2
TABLES
  0
TABLE
  2
VPORT
  5
8
330
0
100
AcDbSymbolTable
 70
     2
  0
VPORT
  5
359C
330
8
100
AcDbSymbolTableRecord
100
AcDbViewportTableRecord
  2
*Active
 70
     0
 10
0.0
 20
0.0
 11
1.0
 21
1.0
 12
5.499999999999998
 22
4.25
 13
0.0
 23
0.0
 14
0.025
 24
0.025
 15
0.5
 25
0.5
 16
0.0
 26
0.0
 36
1.0
 17
0.0
 27
0.0
 37
0.0
 40
8.558352402745995
 41
2.144329896907216
 42
50.0
 43
0.0
 44
0.0
 50
0.0
 51
0.0
 71
     0
 72
   100
 73
     1
 74
     0
 75
     1
 76
     0
 77
     0
 78
     0
281
     0
 65
     1
110
0.0
120
0.0
130
0.0
111
1.0
121
0.0
131
0.0
112
0.0
122
1.0
132
0.0
 79
     0
146
0.0
  0
ENDTAB
  0
TABLE
  2
LTYPE
  5
5
330
0
100
AcDbSymbolTable
 70
     3
  0
LTYPE
  5
13
330
5
100
AcDbSymbolTableRecord
100
AcDbLinetypeTableRecord
  2
ByBlock
 70
     0
  3

 72
    65
 73
     0
 40
0.0
  0
LTYPE
  5
14
330
5
100
AcDbSymbolTableRecord
100
AcDbLinetypeTableRecord
  2
ByLayer
 70
     0
  3

 72
    65
 73
     0
 40
0.0
  0
LTYPE
  5
15
330
5
100
AcDbSymbolTableRecord
100
AcDbLinetypeTableRecord
  2
CONTINUOUS
 70
     0
  3
Solid line
 72
    65
 73
     0
 40
0.0
  0
LTYPE
  5
4AC
330
5
100
AcDbSymbolTableRecord
100
AcDbLinetypeTableRecord
  2
DASHED
 70
     0
  3
__ __ __ __ __ __ __ __ __ __ __ __ __ __ __
 72
    65
 73
     2
 40
0.75
 49
0.5
 74
     0
 49
-0.25
 74
     0
  0
LTYPE
  5
703
330
5
100
AcDbSymbolTableRecord
100
AcDbLinetypeTableRecord
  2
HIDDEN
 70
     0
  3
_ _ _ _ _ _ _ _ _ _ _ _ _ _ _ _ _ _ _ _ _ _ _
 72
    65
 73
     2
 40
0.375
 49
0.25
 74
     0
 49
-0.125
 74
     0
  0
ENDTAB
  0
TABLE
  2
LAYER
  5
2
102
{ACAD_XDICTIONARY
360
62F
102
}
330
0
100
AcDbSymbolTable
 70
     4
  0
LAYER
  5
10
330
2
100
AcDbSymbolTableRecord
100
AcDbLayerTableRecord
  2
0
 70
     0
 62
     7
  6
CONTINUOUS
370
    -3
390
F
  0
LAYER
  5
705
102
{ACAD_XDICTIONARY
360
706
102
}
330
2
100
AcDbSymbolTableRecord
100
AcDbLayerTableRecord
  2
Current
 70
     0
 62
     1
  6
CONTINUOUS
370
    -3
390
F
  0
LAYER
  5
708
102
{ACAD_XDICTIONARY
360
709
102
}
330
2
100
AcDbSymbolTableRecord
100
AcDbLayerTableRecord
  2
Emergency
 70
     0
 62
     5
  6
HIDDEN
370
    -3
390
F
  0
LAYER
  5
16BC
102
{ACAD_XDICTIONARY
360
16BD
102
}
330
2
100
AcDbSymbolTableRecord
100
AcDbLayerTableRecord
  2
Dimensions
 70
     0
 62
     1
  6
CONTINUOUS
370
    -3
390
F
  0
ENDTAB
  0
TABLE
  2
STYLE
  5
3
330
0
100
AcDbSymbolTable
 70
     2
  0
STYLE
  5
11
330
3
100
AcDbSymbolTableRecord
100
AcDbTextStyleTableRecord
  2
STANDARD
 70
     0
 40
0.0
 41
1.0
 50
0.0
 71
     0
 42
0.1
  3
romans.shx
  4

  0
STYLE
  5
51
330
3
100
AcDbSymbolTableRecord
100
AcDbTextStyleTableRecord
  2
ROMAND
 70
     0
 40
0.0
 41
1.0
 50
0.0
 71
     0
 42
0.1
  3
romand
  4

  0
ENDTAB
  0
TABLE
  2
VIEW
  5
6
330
0
100
AcDbSymbolTable
 70
     0
  0
ENDTAB
  0
TABLE
  2
UCS
  5
7
330
0
100
AcDbSymbolTable
 70
     0
  0
ENDTAB
  0
TABLE
  2
APPID
  5
9
330
0
100
AcDbSymbolTable
 70
     1
  0
APPID
  5
12
330
9
100
AcDbSymbolTableRecord
100
AcDbRegAppTableRecord
  2
ACAD
 70
     0
  0
ENDTAB
  0
TABLE
  2
DIMSTYLE
  5
A
330
0
100
AcDbSymbolTable
 70
     1
100
AcDbDimStyleTable
 71
     1
340
3D7
  0
DIMSTYLE
105
3D7
330
A
100
AcDbSymbolTableRecord
100
AcDbDimStyleTableRecord
  2
Standard
 70
     0
340
11
  0
ENDTAB
  0
TABLE
  2
BLOCK_RECORD
  5
1
330
0
100
AcDbSymbolTable
 70
     2
  0
BLOCK_RECORD
  5
1E
330
1
100
AcDbSymbolTableRecord
100
AcDbBlockTableRecord
  2
*Model_Space
340
21
  0
BLOCK_RECORD
  5
49A
330
1
100
AcDbSymbolTableRecord
100
AcDbBlockTableRecord
  2
*Paper_Space
340
49B
  0
BLOCK_RECORD
  5
1024
330
1
100
AcDbSymbolTableRecord
100
AcDbBlockTableRecord
  2
NEWLOGO
340
0
310
2800000020000000200000000100080000000000000400000000000000000000000000000000000000000000000080000080000000808000800000008000800080800000C0C0C000C0DCC000F0CAA6000020400000206000002080000020A0000020C0000020E00000400000004020000040400000406000004080000040A0
310
000040C0000040E00000600000006020000060400000606000006080000060A0000060C0000060E00000800000008020000080400000806000008080000080A0000080C0000080E00000A0000000A0200000A0400000A0600000A0800000A0A00000A0C00000A0E00000C0000000C0200000C0400000C0600000C0800000C0
310
A00000C0C00000C0E00000E0000000E0200000E0400000E0600000E0800000E0A00000E0C00000E0E00040000000400020004000400040006000400080004000A0004000C0004000E00040200000402020004020400040206000402080004020A0004020C0004020E000404000004040200040404000404060004040800040
310
40A0004040C0004040E00040600000406020004060400040606000406080004060A0004060C0004060E00040800000408020004080400040806000408080004080A0004080C0004080E00040A0000040A0200040A0400040A0600040A0800040A0A00040A0C00040A0E00040C0000040C0200040C0400040C0600040C08000
310
40C0A00040C0C00040C0E00040E0000040E0200040E0400040E0600040E0800040E0A00040E0C00040E0E00080000000800020008000400080006000800080008000A0008000C0008000E00080200000802020008020400080206000802080008020A0008020C0008020E00080400000804020008040400080406000804080
310
008040A0008040C0008040E00080600000806020008060400080606000806080008060A0008060C0008060E00080800000808020008080400080806000808080008080A0008080C0008080E00080A0000080A0200080A0400080A0600080A0800080A0A00080A0C00080A0E00080C0000080C0200080C0400080C0600080C0
310
800080C0A00080C0C00080C0E00080E0000080E0200080E0400080E0600080E0800080E0A00080E0C00080E0E000C0000000C0002000C0004000C0006000C0008000C000A000C000C000C000E000C0200000C0202000C0204000C0206000C0208000C020A000C020C000C020E000C0400000C0402000C0404000C0406000C0
310
408000C040A000C040C000C040E000C0600000C0602000C0604000C0606000C0608000C060A000C060C000C060E000C0800000C0802000C0804000C0806000C0808000C080A000C080C000C080E000C0A00000C0A02000C0A04000C0A06000C0A08000C0A0A000C0A0C000C0A0E000C0C00000C0C02000C0C04000C0C06000
310
C0C08000C0C0A000F0FBFF00A4A0A000808080000000FF0000FF000000FFFF00FF000000FF00FF00FFFF0000FFFFFF00FFFFFFFFFFFFFFFFFFFFFFFFFFFFFFFFFFFFFFFFFFFFFFFFFFFFFFFFFFFFFFFFFFFFFFFFFFFFFFFFFFFFFFFFFFFFFFFFFFFFFFFFFFFFFFFFFFFFFFFFFFFFFFFFFFFFFFFFFFFFFFFFFFFFFFFFFFFFFF
310
FFFFFFFFFFFFFFFFFFFFFFFFFFFFFFFFFFFFFFFFFFFFFFFFFFFFFFFFFFFFFFFFFFFFFFFFFFFFFFFFFFFFFFFFFFFFFFFFFFFFFFFFFFFFFFFFFFFFFFFFFFFFFFFFFFFFFFFFFFFFFFFFFFFFFFFFFFFFFFFFFFFFFFFFFFFFFFFFFFFFFFFFFFFFFFFFFFFFFFFFFFFFFFFFFFFFFFFFFFFFFFFFFFFFFFFFFFFFFFFFFFFFFFFFFFFFFF
310
FFFFFFFFFFFFFFFFFFFFFFFFFFFFFFFFFFFFFFFFFFFFFFFFFFFFFFFFFFFFFFFFFFFFFFFFFFFFFFFFFFFFFFFFFFFFFFFFFFFFFFFFFFFFFFFFFFFFFFFFFFFFFFFFFFFFFFFFFFFFFFFFFFFFFFFFFFFFFFFFFFFFFFFFFFFFFFFFFFFFFFFFFFFFFFFFFFFFFFFFFFFFFFFFFFFFFFFFFFFFFFFFFFFFFFFFFFFFFFFFFFFFFFFFFFFFFF
310
FFFFFFFFFFFFFFFFFFFFFFFFFFFFFFFFFFFFFFFFFFFFFFFFFFFFFFFFFFFFFFFFFFFFFFFFFFFFFFFFFFFFFFFFFFFFFFFFFFFFFFFFFF00000000000000000000000000000000000000000000FFFFFFFFFFFFFFFFFFFF00000000000000000000000000000000000000000000FFFFFFFFFFFFFFFFFFFF0000000000FF000000FF
310
00000000FF000000000000FFFFFFFFFFFFFFFFFFFF000000000000FF000000FF00000000FF000000000000FFFFFFFFFFFFFFFFFFFF000000FF0000FF0000000000000000FF000000FF0000FFFFFFFFFFFFFFFFFFFF00000000FF000000000000000000000000000000000000FFFFFFFFFFFFFFFFFFFF000000FF000000FFFF
310
FFFFFFFFFFFFFFFFFFFFFFFFFFFFFFFFFFFFFFFFFFFFFFFF000000000000FFFFFFFFFFFFFFFFFFFFFFFFFFFFFFFFFFFFFFFFFFFFFFFFFFFFFFFFFFFFFFFFFFFFFFFFFFFFFFFFFFFFFFFFFFFFFFFFFFFFFFFFFFFFFFFFFFFFFFFFFFFFFFFFFFFFFFFFFFFFFFFFFFFFFFFFFFFFFFFFFFFFFFFFFFFFFFFFFFFFFFFFFFFFFFFFFF
310
FFFFFFFFFFFFFFFFFFFFFFFFFFFFFFFFFFFFFFFFFFFFFFFFFFFFFFFFFFFFFFFFFFFFFFFFFFFFFFFFFFFFFFFFFFFFFFFFFFFFFFFFFFFFFFFFFFFFFFFFFFFFFFFFFFFFFFFFFFFFFFFFFFFFFFFFFFFFFFFFFFFFFFFFFFFFFFFFFFFFFFFFFFFFFFFFFFFFFFFFFFFFFFFFFFFFFFFFFFFFFFFFFFFFFFFFFFFFFFFFFFFFFFFFFFFFFF
310
FFFFFFFFFFFFFFFFFFFFFFFFFFFFFFFFFFFFFFFFFFFFFFFFFFFFFFFFFFFFFFFFFFFFFFFFFFFFFFFFFFFFFFFFFFFFFFFFFFFFFFFFFFFFFFFFFFFFFFFFFFFFFFFFFFFFFFFFFFFFFFFFFFFFFFFFFFFFFFFFFFFFFFFFFFFFFFFFFFFFFFFFFFFFFFFFFFFFFFFFFFFFFFFFFFFFFFFFFFFFFFFFFFFFFFFFFFFFFFFFFFFFFFFFFFFFFF
310
FFFFFFFFFFFFFFFFFFFFFFFFFFFFFFFFFFFFFFFFFFFFFFFFFFFFFFFFFFFFFFFFFFFFFFFFFFFFFFFFFFFFFFFFFFFFFFFFFFFFFFFFFFFFFFFF
102
{BLKREFS
331
1037
102
}
  0
BLOCK_RECORD
  5
32D9
330
1
100
AcDbSymbolTableRecord
100
AcDbBlockTableRecord
  2
LVMGRID
340
0
310
2800000020000000200000000100080000000000000400000000000000000000000000000000000000000000000080000080000000808000800000008000800080800000C0C0C000C0DCC000F0CAA6000020400000206000002080000020A0000020C0000020E00000400000004020000040400000406000004080000040A0
310
000040C0000040E00000600000006020000060400000606000006080000060A0000060C0000060E00000800000008020000080400000806000008080000080A0000080C0000080E00000A0000000A0200000A0400000A0600000A0800000A0A00000A0C00000A0E00000C0000000C0200000C0400000C0600000C0800000C0
310
A00000C0C00000C0E00000E0000000E0200000E0400000E0600000E0800000E0A00000E0C00000E0E00040000000400020004000400040006000400080004000A0004000C0004000E00040200000402020004020400040206000402080004020A0004020C0004020E000404000004040200040404000404060004040800040
310
40A0004040C0004040E00040600000406020004060400040606000406080004060A0004060C0004060E00040800000408020004080400040806000408080004080A0004080C0004080E00040A0000040A0200040A0400040A0600040A0800040A0A00040A0C00040A0E00040C0000040C0200040C0400040C0600040C08000
310
40C0A00040C0C00040C0E00040E0000040E0200040E0400040E0600040E0800040E0A00040E0C00040E0E00080000000800020008000400080006000800080008000A0008000C0008000E00080200000802020008020400080206000802080008020A0008020C0008020E00080400000804020008040400080406000804080
310
008040A0008040C0008040E00080600000806020008060400080606000806080008060A0008060C0008060E00080800000808020008080400080806000808080008080A0008080C0008080E00080A0000080A0200080A0400080A0600080A0800080A0A00080A0C00080A0E00080C0000080C0200080C0400080C0600080C0
310
800080C0A00080C0C00080C0E00080E0000080E0200080E0400080E0600080E0800080E0A00080E0C00080E0E000C0000000C0002000C0004000C0006000C0008000C000A000C000C000C000E000C0200000C0202000C0204000C0206000C0208000C020A000C020C000C020E000C0400000C0402000C0404000C0406000C0
310
408000C040A000C040C000C040E000C0600000C0602000C0604000C0606000C0608000C060A000C060C000C060E000C0800000C0802000C0804000C0806000C0808000C080A000C080C000C080E000C0A00000C0A02000C0A04000C0A06000C0A08000C0A0A000C0A0C000C0A0E000C0C00000C0C02000C0C04000C0C06000
310
C0C08000C0C0A000F0FBFF00A4A0A000808080000000FF0000FF000000FFFF00FF000000FF00FF00FFFF0000FFFFFF00FFFFFFFFFFFFFFFFFFFFFFFFFFFFFFFFFFFFFFFFFFFFFFFFFFFFFFFFFFFFFFFFFFFFFFFFFFFFFFFFFFFFFFFFFFFFFFFFFFFFFFFFFFFFFFFFFFFFFFFFFFFFFFFFFFFFFFFFFFFFFFFFFFFFFFFFFFFFFF
310
FFFFFFFFFFFFFFFFFFFFFFFFFFFFFFFFFFFFFFFFFFFFFFFFFFFFFFFFFFFFFFFFFFFFFFFFFFFFFFFFFFFFFFFFFFFFFFFFFFFFFFFFFFFFFFFFFFFFFFFFFFFFFFFFFFFFFFFFFFFFFFFFFFFFFFFFFFFFFFFFFFFFFFFFFFFFFFFFFFFFFFFFFFFFFFFFFFFFFFFFFFFFFFFFFFFFFFFFFFFFFFFFFFFFFFFFFFFFFFFFFFFFFFFFFFFFFF
310
FFFFFFFFFFFFFFFFFFFFFFFFFFFFFFFFFFFFFFFFFFFFFFFFFFFFFFFFFFFFFFFFFFFFFFFFFFFFFFFFFFFFFFFFFFFFFFFFFFFFFFFFFFFFFFFFFFFFFFFFFFFFFFFFFFFFFFFFFFFFFFFFFFFFFFFFFFFFFFFFFFFFFFFFFFFFFFFFFFFFFFFFFFFF00000000FFFFFFFFFFFFFFFFFFFFFFFFFFFFFFFFFFFFFFFFFF0000FFFFFFFF0000
310
00FFFF000000000000FFFFFFFFFFFFFFFFFFFFFFFFFFFF0000FF000000000000FFFFFFFFFFFFFF0000FF000000FFFFFFFF00FFFF00000000000000A400FFFFFF0000000000000000FFFFFFFFFF00000000FFFFFFFF00FF00000000000000FFFFFFFFFFFFFFFFFFFF00000000000000FFFFFFFFFFFF0000000000000000FFFF
310
FFFFFFFFFFFFFFFFFFFFFFFFFF00FFFFFFFFFFFFFFFF00FF000000000000FFFFFFFFFFFFFFFFFFFFFFFFFFFFFF00FFFFFFFFFFFFFFFF0000000000000000FFFFFFFFFFFFFFFFFFFFFFFFFFFFFF00FFFFFFFFFFFFFF000000FFFF00000000000000FFFFFFFFFFFFFFFFFFFFFFFF00FFFFFFFFFFFFFFFFFFFF00000000000000
310
FFFF0000000000000000FFFFFFFF00FFFFFFFFFFFFFFFFFFFFFFFF000000FFFF0000000000000000FFFF0000000000FFFFFFFFFFFFFFFFFFFFFFFF00FF00FFFFFFFFFFFFFFFFFFFF000000000000FFFFFFFFFFFFFFFFFFFFFFFFFFFF000000FFFFFFFFFFFFFFFFFFFFFFFFFFFFFFFFFFFFFFFFFFFFFFFFFFFFFFFFFF0000FF
310
FFFFFFFFFFFFFFFFFFFFFFFFFFFFFFFFFFFFFFFFFFFFFFFFFFFFFFFFFFFFFFFFFFFFFFFFFFFFFFFFFFFFFFFFFFFFFFFFFFFFFFFFFFFFFFFFFFFFFFFFFFFFFFFFFFFFFFFFFFFFFFFFFFFFFFFFFFFFFFFFFFFFFFFFFFFFFFFFFFFFFFFFFFFFFFFFFFFFFFFFFFFFFFFFFFFFFFFFFFFFFFFFFFFFFFFFFFFFFFFFFFFFFFFFFFFFFF
310
FFFFFFFFFFFFFFFFFFFFFFFFFFFFFFFFFFFFFFFFFFFFFFFFFFFFFFFFFFFFFFFFFFFFFFFFFFFFFFFFFFFFFFFFFFFFFFFFFFFFFFFFFFFFFFFFFFFFFFFFFFFFFFFFFFFFFFFFFFFFFFFFFFFFFFFFFFFFFFFFFFFFFFFFFFFFFFFFFFFFFFFFFFFFFFFFFFFFFFFFFFFFFFFFFFFFFFFFFFFFFFFFFFFFFFFFFFFFFFFFFFFFFFFFFFFFFF
310
FFFFFFFFFFFFFFFFFFFFFFFFFFFFFFFFFFFFFFFFFFFFFFFFFFFFFFFFFFFFFFFFFFFFFFFFFFFFFFFFFFFFFFFFFFFFFFFFFFFFFFFFFFFFFFFF
102
{BLKREFS
331
3589
102
}
1001
ACAD
1000
DesignCenter Data
1002
{
1070
     1
1070
     1
1002
}
  0
ENDTAB
  0
ENDSEC
  0
SECTION
  2
BLOCKS
  0
BLOCK
  5
59
330
1E
100
AcDbEntity
  8
0
380
     2
100
AcDbBlockBegin
  2
*Model_Space
 70
     0
 10
0.0
 20
0.0
 30
0.0
  3
*Model_Space
  1

  0
ENDBLK
  5
5A
330
1E
100
AcDbEntity
  8
0
380
     2
100
AcDbBlockEnd
  0
BLOCK
  5
49C
330
49A
100
AcDbEntity
 67
     1
  8
0
380
     2
100
AcDbBlockBegin
  2
*Paper_Space
 70
     0
 10
0.0
 20
0.0
 30
0.0
  3
*Paper_Space
  1

  0
ENDBLK
  5
49D
330
49A
100
AcDbEntity
 67
     1
  8
0
380
     2
100
AcDbBlockEnd
  0
BLOCK
  5
1025
330
1024
100
AcDbEntity
  8
0
380
     2
100
AcDbBlockBegin
  2
NEWLOGO
 70
     0
 10
0.0
 20
0.0
 30
0.0
  3
NEWLOGO
  1

  0
LWPOLYLINE
  5
1027
102
{ACAD_REACTORS
330
1028
102
}
330
1024
100
AcDbEntity
  8
0
390
F
100
AcDbPolyline
 90
       11
 70
   128
 43
0.0007176598878676
 10
-0.1327203150685285
 20
0.2145101340236302
 10
-0.2015120290040802
 20
0.2145101340236302
 10
-0.1231309483291536
 20
0.0656088745217964
 10
-0.1231309483291536
 20
-0.0199418546509751
 10
-0.0503893564305145
 20
-0.0199418546509751
 10
-0.0503893564305145
 20
0.0656309769691497
 10
0.0284496750649481
 20
0.2145216028133232
 10
-0.0473629336050987
 20
0.2145216028133232
 10
-0.0865984811497676
 20
0.1329595391780911
 10
-0.1258397646070026
 20
0.2145171826807468
 10
-0.1327946293833673
 20
0.214509712888673
  0
HATCH
  5
1028
330
1024
100
AcDbEntity
  8
0
390
F
100
AcDbHatch
 10
0.0
 20
0.0
 30
0.0
210
0.0
220
0.0
230
1.0
  2
SOLID
 70
     1
 71
     1
 91
        1
 92
        7
 72
     0
 73
     1
 93
       10
 10
-0.0503893564305145
 20
0.0656309769691497
 10
0.0284496750649481
 20
0.2145216028133232
 10
-0.0473629336050987
 20
0.2145216028133233
 10
-0.0865984811497676
 20
0.1329595391780911
 10
-0.1258397646070026
 20
0.2145171826807468
 10
-0.1324025252055675
 20
0.2145101340236302
 10
-0.2015120290040801
 20
0.2145101340236302
 10
-0.1231309483291536
 20
0.0656088745217965
 10
-0.1231309483291536
 20
-0.0199418546509751
 10
-0.0503893564305145
 20
-0.0199418546509751
 97
        1
330
1027
 75
     0
 76
     1
 47
0.0114417074434493
 98
        1
 10
-0.0864556685442271
 20
0.0712099839471456
  0
MTEXT
  5
1029
330
1024
100
AcDbEntity
  8
0
380
     2
100
AcDbMText
 10
-0.5636396839464127
 20
-0.0497129744277678
 30
0.0
 40
0.06
 41
1.615199999999999
 71
     1
 72
     5
  1
{\fArial Rounded MT Bold|b0|i0|c0|p34;EMERGENCY POWER SYSTEMS}
  7
ROMAND
 73
     1
 44
1.0
  0
LWPOLYLINE
  5
102A
102
{ACAD_REACTORS
330
102B
102
}
330
1024
100
AcDbEntity
  8
0
390
F
100
AcDbPolyline
 90
      141
 70
   128
 43
0.0007176598878676
 10
-0.4049021336623078
 20
0.2145037720774203
 10
-0.4790187842083711
 20
0.2145037720774203
 10
-0.4790187842083711
 20
0.0316946833308425
 10
-0.4819460520460872
 20
0.0348478130791499
 10
-0.4880195355912278
 20
0.0419423587562591
 10
-0.4937775145818418
 20
0.0494310415341461
 10
-0.4995354935724557
 20
0.0579444957477309
 10
-0.5045047079659071
 20
0.0663002921262681
 10
-0.5096316778474712
 20
0.0766267919771053
 10
-0.5116781902320771
 20
0.0814775442782621
 10
-0.5139987358310539
 20
0.0873770857914878
 10
-0.5162785742722047
 20
0.094171732695358
 10
-0.5181137613452887
 20
0.1008262319809452
 10
-0.5197829217803492
 20
0.1079056841926036
 10
-0.5211263992660041
 20
0.1154733770694944
 10
-0.5218801912836586
 20
0.1206640378062751
 10
-0.5223004466125101
 20
0.1244860356739075
 10
-0.5225946247005365
 20
0.128350031708103
 10
-0.522796856884515
 20
0.1321111735615652
 10
-0.5228978060122991
 20
0.1363147785578631
 10
-0.5229151317595484
 20
0.1413372399916639
 10
-0.5226964086493507
 20
0.147222286986481
 10
-0.5221139925460197
 20
0.1539122589106121
 10
-0.5217128160885843
 20
0.157276188070238
 10
-0.5209413065999673
 20
0.1621195763175178
 10
-0.5196268808862019
 20
0.1690630076560113
 10
-0.5171858063954069
 20
0.1786068753864258
 10
-0.5138127312835828
 20
0.1883502224290714
 10
-0.5102836345427076
 20
0.1968673990985206
 10
-0.5061913932209255
 20
0.2050844074685596
 10
-0.5011440909525487
 20
0.2135643146583401
 10
-0.4961840852772426
 20
0.2207744601092285
 10
-0.4893338649794892
 20
0.2293891423623275
 10
-0.4812576008283838
 20
0.2380369943025942
 10
-0.4725220592437669
 20
0.2459436013630185
 10
-0.4615501541286289
 20
0.2545510692990005
 10
-0.4488588901476494
 20
0.2627047569877945
 10
-0.4346842326761689
 20
0.2701995610044472
 10
-0.4214985041983557
 20
0.2757177140046778
 10
-0.4028529498504021
 20
0.281734795880098
 10
-0.3900405597594805
 20
0.284780720097415
 10
-0.3809280515273361
 20
0.2864069601418375
 10
-0.3707849567320629
 20
0.2877892670245945
 10
-0.3618594612543262
 20
0.2885400920623686
 10
-0.3532002736855713
 20
0.2889648233780351
 10
-0.3436379767251676
 20
0.2890710047095846
 10
-0.3328007089772758
 20
0.2885931827281434
 10
-0.3227071768644603
 20
0.2878499014283591
 10
-0.3138354952347413
 20
0.286788073139193
 10
-0.3033169685782973
 20
0.2849298758792038
 10
-0.2927399017024577
 20
0.2825404425405971
 10
-0.2838362464272404
 20
0.2800420936771957
 10
-0.2739737285588841
 20
0.2767908204666387
 10
-0.2626044422111526
 20
0.2722732624047683
 10
-0.2505013995505187
 20
0.2664625926535864
 10
-0.2389773502269854
 20
0.2597623457929554
 10
-0.1741029583664311
 20
0.2597623457929554
 10
-0.1789623103121638
 20
0.2647474059787394
 10
-0.1853504379039972
 20
0.2706951088235865
 10
-0.1924483624451341
 20
0.2767519458088987
 10
-0.2000922856275356
 20
0.2825905145132808
 10
-0.2080092017088688
 20
0.2880471227102434
 10
-0.2176117884165833
 20
0.2941549181098617
 10
-0.2301439868826041
 20
0.3011045156081495
 10
-0.2438224267330842
 20
0.3075958976564062
 10
-0.2613216562144718
 20
0.3140872797046619
 10
-0.2752293443418452
 20
0.3185166937251438
 10
-0.2842058345411935
 20
0.3208371583119014
 10
-0.2957446280884781
 20
0.3233573417897073
 10
-0.3083532447873623
 20
0.325419309817482
 10
-0.3208090314422165
 20
0.3268703249101259
 10
-0.3327299033104225
 20
0.3276340183250905
 10
-0.3414921720114403
 20
0.327975714617633
 10
-0.3498412043019705
 20
0.3280259782533719
 10
-0.3575615521389359
 20
0.3277997888978161
 10
-0.3661796921997524
 20
0.3272975688086319
 10
-0.3750819796528191
 20
0.3264933356631516
 10
-0.3852919436126978
 20
0.3252367178170905
 10
-0.396105457491398
 20
0.3233769243632354
 10
-0.4068357782434813
 20
0.3211578525264285
 10
-0.4189066738727103
 20
0.3179911775907733
 10
-0.4288400166730231
 20
0.3149250329213293
 10
-0.4362535677809892
 20
0.3122213051173359
 10
-0.4443762736682367
 20
0.3090043665459436
 10
-0.452624716446195
 20
0.3053853099044437
 10
-0.4610240499147107
 20
0.301364135192836
 10
-0.4672103819981804
 20
0.2980466663552335
 10
-0.473688394128283
 20
0.2942849345389344
 10
-0.4827164184720605
 20
0.2886552905416302
 10
-0.4904870546436122
 20
0.2832267040820122
 10
-0.4965067050756354
 20
0.2785093672343901
 10
-0.5023912621996942
 20
0.2736588245646967
 10
-0.5077728717609027
 20
0.2688585485254773
 10
-0.5122994576218627
 20
0.2645357860099731
 10
-0.5158814306425193
 20
0.260923784964624
 10
-0.5205337533941919
 20
0.2558973165751137
 10
-0.5256135879959896
 20
0.2499409499613083
 10
-0.5300698755044149
 20
0.2442416124862348
 10
-0.5353006007967683
 20
0.2369029689370246
 10
-0.5393242262514768
 20
0.2308460750517431
 10
-0.5437059385550072
 20
0.2233107193256334
 10
-0.5468242519748863
 20
0.2173292208939594
 10
-0.5492887271413558
 20
0.2123530161401872
 10
-0.5520356222627126
 20
0.2061235386595817
 10
-0.5549276092793072
 20
0.1987848921156354
 10
-0.5571441361777847
 20
0.1922599001541352
 10
-0.5591308047378476
 20
0.1856249624789292
 10
-0.5606145193133579
 20
0.1799701836690213
 10
-0.5622244652505
 20
0.1725351875092151
 10
-0.5631046363288892
 20
0.1672322631336778
 10
-0.5639848074072784
 20
0.1613010313324761
 10
-0.5647915527651169
 20
0.1538905590592918
 10
-0.5652190646152402
 20
0.1480347257064327
 10
-0.5654206225206942
 20
0.1407300244860741
 10
-0.5653451739645661
 20
0.133718100558629
 10
-0.5650148224390854
 20
0.125742174362335
 10
-0.564486888040598
 20
0.1190941856310914
 10
-0.5632198287878066
 20
0.1100543318362508
 10
-0.5621826728253332
 20
0.103326575337995
 10
-0.5603600722847215
 20
0.0952037394113186
 10
-0.5577000691893215
 20
0.0856532533160932
 10
-0.5538175991276031
 20
0.0737680357155783
 10
-0.5491984829878743
 20
0.06246843559033
 10
-0.5436831158323532
 20
0.0514444379515755
 10
-0.5366510201403827
 20
0.038835740240474
 10
-0.5276888439108714
 20
0.0256899457539515
 10
-0.5123470231555452
 20
0.0072717103015769
 10
-0.4984525444655663
 20
-0.0061321345283822
 10
-0.4856884134519551
 20
-0.0165038818334829
 10
-0.3971110957490911
 20
-0.0165038818334829
 10
-0.3971110957490911
 20
0.07992589709841
 10
-0.3673802740116514
 20
0.0206659570051944
 10
-0.3250873672152714
 20
0.0206659570051944
 10
-0.2947417062099866
 20
0.0801378554722554
 10
-0.2947417062099866
 20
-0.016541549612934
 10
-0.2135263091451556
 20
-0.016541549612934
 10
-0.2135263091451556
 20
0.2148070848487977
 10
-0.2919166975269025
 20
0.2148070848487977
 10
-0.345747357555128
 20
0.1069397952405744
 10
-0.4011403979868132
 20
0.214516954901808
 10
-0.4049165889095506
 20
0.2145034965617816
  0
HATCH
  5
102B
330
1024
100
AcDbEntity
  8
0
390
F
100
AcDbHatch
 10
0.0
 20
0.0
 30
0.0
210
0.0
220
0.0
230
1.0
  2
SOLID
 70
     1
 71
     1
 91
        1
 92
        7
 72
     0
 73
     1
 93
      140
 10
-0.3673802740116514
 20
0.0206659570051944
 10
-0.3250873672152714
 20
0.0206659570051944
 10
-0.2947417062099867
 20
0.0801378554722554
 10
-0.2947417062099867
 20
-0.016541549612934
 10
-0.2135263091451555
 20
-0.016541549612934
 10
-0.2135263091451556
 20
0.2148070848487977
 10
-0.2919166975269025
 20
0.2148070848487978
 10
-0.345747357555128
 20
0.1069397952405744
 10
-0.4011403979868132
 20
0.214516954901808
 10
-0.4048392837105436
 20
0.2145037720774203
 10
-0.4790187842083711
 20
0.2145037720774204
 10
-0.4790187842083711
 20
0.0316946833308424
 10
-0.4819460520460875
 20
0.0348478130791495
 10
-0.488019535591228
 20
0.0419423587562591
 10
-0.4937775145818417
 20
0.0494310415341457
 10
-0.4995354935724555
 20
0.0579444957477304
 10
-0.5045047079659078
 20
0.0663002921262685
 10
-0.5096316778474717
 20
0.0766267919771062
 10
-0.5116781902320762
 20
0.0814775442782597
 10
-0.5139987358310539
 20
0.087377085791488
 10
-0.5162785742722048
 20
0.0941717326953578
 10
-0.518113761345289
 20
0.1008262319809444
 10
-0.519782921780349
 20
0.1079056841926038
 10
-0.5211263992660042
 20
0.1154733770694961
 10
-0.5218801912836585
 20
0.1206640378062739
 10
-0.5223004466125101
 20
0.1244860356739082
 10
-0.5225946247005365
 20
0.1283500317081019
 10
-0.5227968568845148
 20
0.1321111735615636
 10
-0.5228978060122991
 20
0.1363147785578704
 10
-0.5229151317595484
 20
0.1413372399916624
 10
-0.5226964086493508
 20
0.1472222869864802
 10
-0.5221139925460199
 20
0.1539122589106126
 10
-0.5217128160885839
 20
0.1572761880702379
 10
-0.5209413065999674
 20
0.1621195763175164
 10
-0.5196268808862019
 20
0.1690630076560109
 10
-0.517185806395407
 20
0.1786068753864264
 10
-0.5138127312835826
 20
0.188350222429072
 10
-0.510283634542707
 20
0.1968673990985208
 10
-0.5061913932209254
 20
0.2050844074685594
 10
-0.501144090952549
 20
0.2135643146583392
 10
-0.4961840852772429
 20
0.2207744601092289
 10
-0.489333864979489
 20
0.229389142362327
 10
-0.4812576008283844
 20
0.2380369943025939
 10
-0.472522059243766
 20
0.245943601363019
 10
-0.4615501541286291
 20
0.2545510692990007
 10
-0.4488588901476489
 20
0.2627047569877944
 10
-0.4346842326761684
 20
0.2701995610044472
 10
-0.4214985041983555
 20
0.275717714004678
 10
-0.4028529498504012
 20
0.281734795880098
 10
-0.3900405597594809
 20
0.284780720097415
 10
-0.3809280515273352
 20
0.2864069601418376
 10
-0.3707849567320628
 20
0.2877892670245947
 10
-0.361859461254326
 20
0.2885400920623687
 10
-0.3532002736855704
 20
0.2889648233780351
 10
-0.3436379767251672
 20
0.2890710047095846
 10
-0.3328007089772755
 20
0.2885931827281433
 10
-0.3227071768644609
 20
0.2878499014283591
 10
-0.3138354952347409
 20
0.2867880731391929
 10
-0.3033169685782966
 20
0.2849298758792037
 10
-0.2927399017024583
 20
0.2825404425405973
 10
-0.2838362464272392
 20
0.2800420936771954
 10
-0.2739737285588843
 20
0.2767908204666388
 10
-0.2626044422111529
 20
0.2722732624047684
 10
-0.2505013995505187
 20
0.2664625926535864
 10
-0.2389773502269854
 20
0.2597623457929555
 10
-0.1741029583664311
 20
0.2597623457929554
 10
-0.1789623103121634
 20
0.2647474059787389
 10
-0.1853504379039969
 20
0.2706951088235863
 10
-0.192448362445134
 20
0.2767519458088985
 10
-0.2000922856275353
 20
0.2825905145132804
 10
-0.2080092017088686
 20
0.2880471227102436
 10
-0.2176117884165833
 20
0.2941549181098615
 10
-0.2301439868826041
 20
0.3011045156081494
 10
-0.243822426733084
 20
0.3075958976564061
 10
-0.2613216562144717
 20
0.3140872797046619
 10
-0.2752293443418444
 20
0.3185166937251438
 10
-0.2842058345411949
 20
0.3208371583119014
 10
-0.2957446280884775
 20
0.3233573417897072
 10
-0.3083532447873626
 20
0.325419309817482
 10
-0.3208090314422173
 20
0.326870324910126
 10
-0.3327299033104214
 20
0.3276340183250905
 10
-0.3414921720114405
 20
0.327975714617633
 10
-0.349841204301969
 20
0.3280259782533719
 10
-0.3575615521389369
 20
0.3277997888978161
 10
-0.3661796921997517
 20
0.3272975688086319
 10
-0.3750819796528182
 20
0.3264933356631515
 10
-0.3852919436126981
 20
0.3252367178170905
 10
-0.3961054574913981
 20
0.3233769243632357
 10
-0.406835778243481
 20
0.3211578525264286
 10
-0.4189066738727087
 20
0.3179911775907741
 10
-0.4288400166730244
 20
0.3149250329213289
 10
-0.43625356778099
 20
0.3122213051173363
 10
-0.4443762736682345
 20
0.3090043665459437
 10
-0.4526247164461937
 20
0.305385309904443
 10
-0.4610240499147101
 20
0.3013641351928357
 10
-0.4672103819981809
 20
0.2980466663552344
 10
-0.4736883941282838
 20
0.2942849345389353
 10
-0.4827164184720625
 20
0.2886552905416297
 10
-0.490487054643613
 20
0.2832267040820115
 10
-0.4965067050756341
 20
0.2785093672343895
 10
-0.5023912621996935
 20
0.273658824564698
 10
-0.5077728717609036
 20
0.2688585485254772
 10
-0.5122994576218636
 20
0.2645357860099718
 10
-0.5158814306425203
 20
0.2609237849646245
 10
-0.5205337533941914
 20
0.2558973165751144
 10
-0.525613587995991
 20
0.2499409499613073
 10
-0.5300698755044136
 20
0.244241612486236
 10
-0.5353006007967697
 20
0.2369029689370253
 10
-0.539324226251477
 20
0.2308460750517439
 10
-0.5437059385550067
 20
0.2233107193256345
 10
-0.5468242519748868
 20
0.2173292208939615
 10
-0.5492887271413551
 20
0.2123530161401895
 10
-0.5520356222627138
 20
0.2061235386595815
 10
-0.5549276092793072
 20
0.1987848921156341
 10
-0.5571441361777857
 20
0.1922599001541331
 10
-0.5591308047378476
 20
0.1856249624789292
 10
-0.5606145193133573
 20
0.1799701836690227
 10
-0.5622244652504992
 20
0.1725351875092178
 10
-0.5631046363288891
 20
0.1672322631336741
 10
-0.5639848074072785
 20
0.1613010313324729
 10
-0.5647915527651169
 20
0.1538905590592904
 10
-0.5652190646152403
 20
0.148034725706431
 10
-0.5654206225206942
 20
0.1407300244860745
 10
-0.5653451739645661
 20
0.1337181005586257
 10
-0.5650148224390853
 20
0.1257421743623343
 10
-0.5644868880405982
 20
0.1190941856310926
 10
-0.563219828787806
 20
0.1100543318362526
 10
-0.5621826728253332
 20
0.1033265753379952
 10
-0.5603600722847212
 20
0.0952037394113177
 10
-0.5577000691893215
 20
0.0856532533160935
 10
-0.5538175991276031
 20
0.0737680357155781
 10
-0.5491984829878742
 20
0.0624684355903297
 10
-0.5436831158323533
 20
0.0514444379515755
 10
-0.5366510201403826
 20
0.0388357402404737
 10
-0.5276888439108709
 20
0.0256899457539514
 10
-0.5123470231555453
 20
0.0072717103015771
 10
-0.4984525444655672
 20
-0.0061321345283813
 10
-0.485688413451955
 20
-0.0165038818334829
 10
-0.3971110957490911
 20
-0.0165038818334829
 10
-0.397111095749091
 20
0.0799258970984099
 97
        1
330
102A
 75
     0
 76
     1
 47
0.0061095475431254
 98
        1
 10
-0.3727129608038417
 20
0.08415823301109
  0
LWPOLYLINE
  5
102C
102
{ACAD_REACTORS
330
102D
102
}
330
1024
100
AcDbEntity
  8
0
390
F
100
AcDbPolyline
 90
       61
 70
   128
 43
0.0007176598878676
 10
0.3539636460123372
 20
0.21559169246287
 10
0.2399241532748668
 20
0.21559169246287
 10
0.2399241532748668
 20
-0.0210625697188514
 10
0.3125491710732255
 20
-0.0210625697188514
 10
0.3125491710732255
 20
0.0436477536361855
 10
0.3242923481089228
 20
0.0436477536361855
 10
0.3265097585405083
 20
0.0433194486013431
 10
0.3279591000502169
 20
0.0430122538484463
 10
0.3303178726018334
 20
0.0421255488434271
 10
0.3325468046029556
 20
0.0404386499465552
 10
0.3338884953933725
 20
0.0388166326000867
 10
0.3352301823572965
 20
0.0366539404255031
 10
0.3367017098717131
 20
0.0337343081311783
 10
0.3417712272535027
 20
0.0211954805382311
 10
0.3590410727545485
 20
-0.0210543183288499
 10
0.4348413983830107
 20
-0.0210543183288499
 10
0.4081714636042815
 20
0.0452658433638398
 10
0.4066343538313788
 20
0.048187092388126
 10
0.4051476351409207
 20
0.0506550449499574
 10
0.4035601266325913
 20
0.0530222641714788
 10
0.4017923367469223
 20
0.0552015733321563
 10
0.3999276409334769
 20
0.0571658609769088
 10
0.3986677146391972
 20
0.0582991030252789
 10
0.4005828053615766
 20
0.0595582626412723
 10
0.4037830236591962
 20
0.0618247485224837
 10
0.4069328432213873
 20
0.0641919677440059
 10
0.4098380925022873
 20
0.0666788124913795
 10
0.4144998282094062
 20
0.0710103193576535
 10
0.4186827893226824
 20
0.0756440244603862
 10
0.4223617822141428
 20
0.0802525471202769
 10
0.4268451000458669
 20
0.087122287905479
 10
0.4303365527033236
 20
0.0935722481466979
 10
0.4331931978738748
 20
0.1005861402155768
 10
0.4356677294828267
 20
0.1088401319747119
 10
0.436803455476861
 20
0.1144869218278579
 10
0.4375700703315104
 20
0.1204458476317614
 10
0.4378818873956121
 20
0.1282410182088389
 10
0.437826269324134
 20
0.1362449253979525
 10
0.4370476354558957
 20
0.1449714073805408
 10
0.4359986751839653
 20
0.1522488442778291
 10
0.4346781984691095
 20
0.1579578586053163
 10
0.4327650936964443
 20
0.1647618470186778
 10
0.430716110167797
 20
0.1702626226013031
 10
0.4284662434250795
 20
0.1753217311134811
 10
0.4254128514790754
 20
0.1808225084805759
 10
0.4218276000059209
 20
0.1863938366597617
 10
0.4173680446938999
 20
0.1922559781558117
 10
0.4133102481570301
 20
0.1964317489581546
 10
0.4078061100807329
 20
0.2011294933413792
 10
0.4029407896556965
 20
0.2044273119648183
 10
0.3999655844351473
 20
0.2061384903626342
 10
0.3969395251265411
 20
0.2076802458104225
 10
0.3934002298307835
 20
0.2092519928481238
 10
0.389933396827395
 20
0.210581969162261
 10
0.3869666711146848
 20
0.2115561542477407
 10
0.3812153186506357
 20
0.2130934449511983
 10
0.3744587159408361
 20
0.2143657775258845
 10
0.3682304944763146
 20
0.2151008525328022
 10
0.3638473312646706
 20
0.2153976063508152
 10
0.3586393560708174
 20
0.2155398785874185
 10
0.3539256183278283
 20
0.2155909536922254
  0
HATCH
  5
102D
330
1024
100
AcDbEntity
  8
0
390
F
100
AcDbHatch
 10
0.0
 20
0.0
 30
0.0
210
0.0
220
0.0
230
1.0
  2
SOLID
 70
     1
 71
     1
 91
        2
 92
        7
 72
     0
 73
     1
 93
       58
 10
0.2399241532748669
 20
-0.0210625697188514
 10
0.3125491710732255
 20
-0.0210625697188514
 10
0.3125491710732255
 20
0.0436477536361855
 10
0.3242923481089228
 20
0.0436477536361855
 10
0.3275526737046772
 20
0.0431650368179254
 10
0.3303178726018335
 20
0.0421255488434271
 10
0.3331791055442912
 20
0.0399601123510193
 10
0.3352301823572966
 20
0.0366539404255032
 10
0.3367017098717135
 20
0.0337343081311774
 10
0.3417712272535019
 20
0.0211954805382351
 10
0.3590410727545485
 20
-0.0210543183288499
 10
0.4348413983830107
 20
-0.0210543183288499
 10
0.4081714636042812
 20
0.0452658433638399
 10
0.4066343538313781
 20
0.0481870923881261
 10
0.4051476351409208
 20
0.0506550449499568
 10
0.4035601266325913
 20
0.0530222641714786
 10
0.4017923367469217
 20
0.0552015733321572
 10
0.3999276409334768
 20
0.0571658609769087
 10
0.3986677146391972
 20
0.0582991030252789
 10
0.4005828053615782
 20
0.0595582626412727
 10
0.4037830236591973
 20
0.0618247485224843
 10
0.4069328432213872
 20
0.0641919677440058
 10
0.4098380925022876
 20
0.0666788124913798
 10
0.414499828209406
 20
0.0710103193576534
 10
0.4186827893226821
 20
0.0756440244603859
 10
0.4223617822141427
 20
0.0802525471202766
 10
0.4268451000458671
 20
0.087122287905479
 10
0.430336552703324
 20
0.0935722481466985
 10
0.4331931978738747
 20
0.1005861402155768
 10
0.4356677294828265
 20
0.1088401319747109
 10
0.4368034554768611
 20
0.1144869218278581
 10
0.4375700703315104
 20
0.1204458476317613
 10
0.4378818873956121
 20
0.1282410182088393
 10
0.437826269324134
 20
0.1362449253979518
 10
0.4370476354558956
 20
0.1449714073805408
 10
0.4359986751839655
 20
0.152248844277829
 10
0.4346781984691101
 20
0.1579578586053161
 10
0.4327650936964443
 20
0.1647618470186782
 10
0.4307161101677974
 20
0.170262622601302
 10
0.4284662434250793
 20
0.1753217311134816
 10
0.4254128514790756
 20
0.1808225084805753
 10
0.421827600005921
 20
0.1863938366597606
 10
0.4173680446939
 20
0.1922559781558113
 10
0.4133102481570294
 20
0.1964317489581551
 10
0.4078061100807333
 20
0.2011294933413787
 10
0.4029407896556968
 20
0.2044273119648181
 10
0.3999655844351476
 20
0.2061384903626341
 10
0.396939525126542
 20
0.2076802458104219
 10
0.3934002298307836
 20
0.2092519928481241
 10
0.3899333968273941
 20
0.2105819691622613
 10
0.3869666711146844
 20
0.2115561542477407
 10
0.3812153186506358
 20
0.2130934449511983
 10
0.3744587159408363
 20
0.2143657775258844
 10
0.368230494476314
 20
0.2151008525328022
 10
0.3638473312646704
 20
0.2153976063508152
 10
0.3586393560708159
 20
0.2155398785874186
 10
0.3538574369489684
 20
0.21559169246287
 10
0.2399241532748668
 20
0.21559169246287
 97
        1
330
102C
 92
       22
 72
     0
 73
     1
 93
       26
 10
0.3126630666286125
 20
0.1045739652676731
 10
0.3126630666286125
 20
0.1541788290527712
 10
0.3287208284736813
 20
0.1541788290527712
 10
0.3287208284736813
 20
0.1541810507181154
 10
0.3413895652180405
 20
0.1541810507181154
 10
0.343731413192419
 20
0.1540997859472082
 10
0.346170836730796
 20
0.1538397404647753
 10
0.3493803725381514
 20
0.1531345000143967
 10
0.3522914189555025
 20
0.1521430751627387
 10
0.3546983173058784
 20
0.1508265894429819
 10
0.356893798107768
 20
0.1491687952543551
 10
0.3590567537216565
 20
0.1468446317287589
 10
0.3606179818780822
 20
0.1444392034322556
 10
0.3623029909240584
 20
0.1406251974449022
 10
0.3633930501039584
 20
0.1358156845725511
 10
0.3636947001236237
 20
0.1323656817859133
 10
0.3638208787205954
 20
0.1291770602447324
 10
0.3637127229042676
 20
0.1264748388718744
 10
0.3633930614813203
 20
0.1228009436792584
 10
0.3624316514112957
 20
0.1191654099936278
 10
0.3607459613234652
 20
0.1148334177294359
 10
0.3584269933786304
 20
0.1117488218980397
 10
0.3552801470012723
 20
0.1089457387030182
 10
0.3519964882037101
 20
0.1070314394207479
 10
0.3475498626105419
 20
0.1055273452156031
 10
0.3417350439384758
 20
0.1045739652676732
 97
        1
330
1036
 75
     0
 76
     1
 47
0.0114417074434493
 98
        2
 10
0.2747695383337536
 20
0.092559244643045
 10
0.2747695383337536
 20
0.092559244643045
  0
LWPOLYLINE
  5
102E
102
{ACAD_REACTORS
330
102F
102
}
330
1024
100
AcDbEntity
  8
0
390
F
100
AcDbPolyline
 90
       14
 70
   128
 43
0.0007176598878676
 10
0.2107654776246122
 20
0.2155387847072134
 10
0.0404968493088163
 20
0.2155387847072134
 10
0.0404968493088163
 20
-0.0210730695412487
 10
0.2115225645124248
 20
-0.0210730695412487
 10
0.2115225645124248
 20
0.0373509134256489
 10
0.113885979435592
 20
0.0373509134256489
 10
0.113885979435592
 20
0.0671076777729276
 10
0.1988898427174117
 20
0.0671076777729276
 10
0.1988898427174117
 20
0.1269911217774267
 10
0.113895538014372
 20
0.1269911217774267
 10
0.113895538014372
 20
0.1571134616032284
 10
0.2115029039929031
 20
0.1571134616032284
 10
0.2115029039929031
 20
0.2155429228935048
 10
0.2107558348629954
 20
0.2155387954140346
  0
HATCH
  5
102F
330
1024
100
AcDbEntity
  8
0
390
F
100
AcDbHatch
 10
0.0
 20
0.0
 30
0.0
210
0.0
220
0.0
230
1.0
  2
SOLID
 70
     1
 71
     1
 91
        1
 92
        7
 72
     0
 73
     1
 93
       12
 10
0.0404968493088163
 20
-0.0210730695412487
 10
0.2115225645124248
 20
-0.0210730695412487
 10
0.2115225645124248
 20
0.0373509134256489
 10
0.1138859794355919
 20
0.0373509134256489
 10
0.113885979435592
 20
0.0671076777729276
 10
0.1988898427174117
 20
0.0671076777729276
 10
0.1988898427174117
 20
0.1269911217774267
 10
0.113895538014372
 20
0.1269911217774267
 10
0.113895538014372
 20
0.1571134616032284
 10
0.2115029039929031
 20
0.1571134616032284
 10
0.2115029039929031
 20
0.2155387847072134
 10
0.0404968493088163
 20
0.2155387847072134
 97
        1
330
102E
 75
     0
 76
     1
 47
0.0114417074434493
 98
        1
 10
0.0810108984254097
 20
0.0991282479340914
  0
LWPOLYLINE
  5
1030
102
{ACAD_REACTORS
330
1031
102
}
330
1024
100
AcDbEntity
  8
0
390
F
100
AcDbPolyline
 90
      150
 70
   128
 43
0.0007176598878676
 10
0.6246452109477385
 20
0.1513817559532358
 10
0.6246452109477385
 20
0.2079898246154483
 10
0.6183087265250915
 20
0.2097754564615855
 10
0.6097791452055131
 20
0.2118264318820486
 10
0.6010571678326873
 20
0.213813316272387
 10
0.5932971707260962
 20
0.2151592707323013
 10
0.5831001531185489
 20
0.2166975036360021
 10
0.573672723550482
 20
0.2178511778676597
 10
0.5646300822624184
 20
0.218620293427275
 10
0.5559722369073406
 20
0.2190689449139125
 10
0.5466089393570233
 20
0.2190689449139125
 10
0.5383774839106455
 20
0.2187353507095278
 10
0.5276963231399901
 20
0.217658917268575
 10
0.5169254043299354
 20
0.2160442662149116
 10
0.5083086708124896
 20
0.2139810992943412
 10
0.4978070222941416
 20
0.2103929866348535
 10
0.487574651720486
 20
0.205549031689392
 10
0.4808428255509547
 20
0.2010638890805616
 10
0.4742007612473174
 20
0.1954126095005035
 10
0.4687255438028899
 20
0.188864301755574
 10
0.4641479029259675
 20
0.1815983711218516
 10
0.4615243141201546
 20
0.1760880682530637
 10
0.4591906127487473
 20
0.1694500569778583
 10
0.4571261893220325
 20
0.160659177036278
 10
0.4563183707939285
 20
0.1498948354888734
 10
0.4561431212544953
 20
0.1440940512146698
 10
0.456412391546202
 20
0.1344958466384929
 10
0.4573997261531062
 20
0.1265122931159794
 10
0.4591948792881145
 20
0.1188875519300971
 10
0.4615285806595218
 20
0.1112628089597445
 10
0.4645486438540605
 20
0.1053244973550829
 10
0.467961286067748
 20
0.100060374635615
 10
0.4712255522002771
 20
0.0960196043539883
 10
0.4754542628603442
 20
0.0919046929063177
 10
0.4806173915596866
 20
0.087540644442278
 10
0.4872942999059032
 20
0.0831291611925496
 10
0.4933777039274823
 20
0.0797186033135899
 10
0.4983482911668542
 20
0.0772718984379068
 10
0.5039865669449526
 20
0.0747881229792018
 10
0.5089942482046155
 20
0.0727121310716203
 10
0.5131305146274024
 20
0.0710990842566268
 10
0.5215879321210437
 20
0.0680592393457689
 10
0.5305646658987442
 20
0.065130607968448
 10
0.5394301137890807
 20
0.0619054065735387
 10
0.5465892443990655
 20
0.0588284892951885
 10
0.5525613663597753
 20
0.0560110732358741
 10
0.5561965726952032
 20
0.0534531548266539
 10
0.5587931464625129
 20
0.050005524580202
 10
0.5597699888264174
 20
0.0466767114946221
 10
0.5599183649075777
 20
0.0437851524847925
 10
0.5593619546032276
 20
0.0405228787223919
 10
0.5583604198818933
 20
0.0382244597477373
 10
0.5567282868156287
 20
0.0360372543066196
 10
0.5545768374653051
 20
0.0343319753671398
 10
0.5515722294748056
 20
0.0329974093957617
 10
0.5478628350987976
 20
0.0318481999084339
 10
0.5438195983666745
 20
0.0311067739722306
 10
0.5379587546403429
 20
0.0305507045200777
 10
0.5327656071057234
 20
0.0302912050855131
 10
0.5282224735400228
 20
0.0303583422061946
 10
0.5217310352952538
 20
0.0305807692732678
 10
0.5132365237813233
 20
0.0313221952094711
 10
0.503963041667797
 20
0.0325455476473122
 10
0.4954314361335772
 20
0.0339913271522274
 10
0.4886248402965752
 20
0.035532945195814
 10
0.4788884367484876
 20
0.0380744821690007
 10
0.4687887345034341
 20
0.0409064827029013
 10
0.4575264787239846
 20
0.0441741723322258
 10
0.4504058273246479
 20
0.0459169412052143
 10
0.4443024107462197
 20
0.0475870946341424
 10
0.4380536716278094
 20
0.0491120171749486
 10
0.4694687290427027
 20
-0.0139055381608735
 10
0.4746563166834204
 20
-0.0157626433901719
 10
0.480366538177373
 20
-0.0173102322709005
 10
0.4858319177090529
 20
-0.0185950793347898
 10
0.4912711431630897
 20
-0.0197751155440633
 10
0.4971362151638595
 20
-0.0208971172149211
 10
0.504104618071418
 20
-0.02203846432674
 10
0.5106922619957946
 20
-0.0229556320217936
 10
0.5189821288533274
 20
-0.024011538702541
 10
0.5268927214068473
 20
-0.0246884025084979
 10
0.535047134249087
 20
-0.025148669111382
 10
0.5426326318088162
 20
-0.0254194142768709
 10
0.5490041592516626
 20
-0.0253534370617903
 10
0.5592414583479233
 20
-0.0248987237300327
 10
0.5678483692585932
 20
-0.0239892970665157
 10
0.5777065088456226
 20
-0.022397801297597
 10
0.5886700418190092
 20
-0.0197252735081337
 10
0.598856750855207
 20
-0.0159855005145522
 10
0.6075882141034512
 20
-0.0114146694332975
 10
0.6148644353902349
 20
-0.0065321895616366
 10
0.6215169804573933
 20
-0.0000914710913564
 10
0.6282734721989059
 20
0.0092579587158932
 10
0.6325352590619211
 20
0.0179840927268007
 10
0.6352378572891216
 20
0.0273335225340512
 10
0.6365891564027227
 20
0.0367868352714362
 10
0.63679970916386
 20
0.0458726881298137
 10
0.6366957663159987
 20
0.0543910580649207
 10
0.635760250073318
 20
0.0637404860877009
 10
0.6334734385435273
 20
0.075063684429642
 10
0.6299392745744879
 20
0.084516997167027
 10
0.6248396465215969
 20
0.0935039671806468
 10
0.6193305072193347
 20
0.0997369197906562
 10
0.6125740154778221
 20
0.1059698724006663
 10
0.6044662246227102
 20
0.1114756480686685
 10
0.5956312241348308
 20
0.1161418608642348
 10
0.5888239127436954
 20
0.1192528508157453
 10
0.5815719016762611
 20
0.1219536017851972
 10
0.5755696422590014
 20
0.1240205036018036
 10
0.5635969828027534
 20
0.1274049885873127
 10
0.5514874956203287
 20
0.1310629668223511
 10
0.5439276164292651
 20
0.1335244096370527
 10
0.5415224132151586
 20
0.1346714831136033
 10
0.5385463508602442
 20
0.1361756986627185
 10
0.5358781604554537
 20
0.1381585269523926
 10
0.5344072337003905
 20
0.1398336751132874
 10
0.5331073435162921
 20
0.1423634916864893
 10
0.5326626476664878
 20
0.1450984295351905
 10
0.5327141254728592
 20
0.1470368477160902
 10
0.5331004328704659
 20
0.1488268211781172
 10
0.5341891197896676
 20
0.1510906089404527
 10
0.5358397080302524
 20
0.1529332278410242
 10
0.5379819661450967
 20
0.1544599687569192
 10
0.5405807669311607
 20
0.1555128935880354
 10
0.5429228330156235
 20
0.1562224399649006
 10
0.5455216338016875
 20
0.1568190971907528
 10
0.5484540664867695
 20
0.1573280120190317
 10
0.5505963207751226
 20
0.1576263397397231
 10
0.5534760741351228
 20
0.1579071207653691
 10
0.5564436225437675
 20
0.1581177043040167
 10
0.5601311102490332
 20
0.1583282896271339
 10
0.5635650354151523
 20
0.1583846128586694
 10
0.5670242498715617
 20
0.1583846128586694
 10
0.569833764131456
 20
0.158261771717596
 10
0.5734861322866696
 20
0.1580511863944789
 10
0.5770858249432962
 20
0.1577177599302884
 10
0.5801236124520468
 20
0.1573141395480384
 10
0.5836003866834841
 20
0.1568227749837447
 10
0.5880894174688187
 20
0.1560290016155132
 10
0.5917066660739767
 20
0.1552744045050876
 10
0.5952361196304956
 20
0.1544671619561182
 10
0.5988709318371744
 20
0.1535546267455903
 10
0.6023718091461668
 20
0.1525500485644118
 10
0.6059188224777117
 20
0.1514620267742659
 10
0.6093955967091472
 20
0.1503564547201357
 10
0.6136976650608777
 20
0.1488297138042398
 10
0.6167705721196822
 20
0.1477241435345791
 10
0.6204973196401103
 20
0.1462107914982651
 10
0.6246448129924965
 20
0.1445154092302712
 10
0.6246448129924965
 20
0.1514270814951999
  0
HATCH
  5
1031
330
1024
100
AcDbEntity
  8
0
390
F
100
AcDbHatch
 10
0.0
 20
0.0
 30
0.0
210
0.0
220
0.0
230
1.0
  2
SOLID
 70
     1
 71
     1
 91
        1
 92
        7
 72
     0
 73
     1
 93
      142
 10
0.5089942482046155
 20
0.0727121310716204
 10
0.5131305146274032
 20
0.0710990842566271
 10
0.5215879321210429
 20
0.0680592393457691
 10
0.5305646658987447
 20
0.0651306079684476
 10
0.5394301137890812
 20
0.0619054065735385
 10
0.5465892443990647
 20
0.0588284892951888
 10
0.5525613663597749
 20
0.0560110732358742
 10
0.5561965726952032
 20
0.053453154826654
 10
0.5587931464625131
 20
0.050005524580202
 10
0.5597699888264173
 20
0.0466767114946221
 10
0.5599183649075777
 20
0.0437851524847927
 10
0.5591505294503662
 20
0.0392832777957034
 10
0.5558915318428928
 20
0.0349159272119857
 10
0.5515722294748052
 20
0.0329974093957616
 10
0.5478628350987976
 20
0.0318481999084339
 10
0.5438195983666745
 20
0.0311067739722306
 10
0.5379587546403428
 20
0.0305507045200777
 10
0.5327656071057234
 20
0.0302912050855131
 10
0.5282224735400228
 20
0.0303583422061946
 10
0.5217310352952537
 20
0.0305807692732678
 10
0.5132365237813234
 20
0.0313221952094711
 10
0.503963041667797
 20
0.0325455476473123
 10
0.4954314361335777
 20
0.0339913271522274
 10
0.4886248402965741
 20
0.0355329451958141
 10
0.4788884367484876
 20
0.0380744821690008
 10
0.4687887345034339
 20
0.0409064827029014
 10
0.457526478723985
 20
0.0441741723322258
 10
0.4504058273246472
 20
0.0459169412052143
 10
0.4443024107462191
 20
0.0475870946341426
 10
0.4380536716278095
 20
0.0491120171749486
 10
0.4694687290427028
 20
-0.0139055381608735
 10
0.4746563166834205
 20
-0.0157626433901719
 10
0.4803665381773734
 20
-0.0173102322709006
 10
0.4858319177090543
 20
-0.01859507933479
 10
0.49127114316309
 20
-0.0197751155440634
 10
0.4971362151638598
 20
-0.0208971172149211
 10
0.504104618071418
 20
-0.02203846432674
 10
0.5106922619957939
 20
-0.0229556320217935
 10
0.5189821288533273
 20
-0.024011538702541
 10
0.5268927214068471
 20
-0.0246884025084979
 10
0.535047134249087
 20
-0.025148669111382
 10
0.5426326318088161
 20
-0.0254194142768709
 10
0.549004159251663
 20
-0.0253534370617903
 10
0.5592414583479233
 20
-0.0248987237300327
 10
0.5678483692585933
 20
-0.0239892970665156
 10
0.5777065088456223
 20
-0.022397801297597
 10
0.5886700418190088
 20
-0.0197252735081338
 10
0.5988567508552075
 20
-0.0159855005145521
 10
0.6075882141034512
 20
-0.0114146694332974
 10
0.6148644353902352
 20
-0.0065321895616364
 10
0.6215169804573933
 20
-0.0000914710913567
 10
0.6282734721989057
 20
0.0092579587158928
 10
0.632535259061921
 20
0.0179840927268005
 10
0.6352378572891216
 20
0.027333522534052
 10
0.6365891564027227
 20
0.036786835271436
 10
0.63679970916386
 20
0.0458726881298087
 10
0.6366957663159987
 20
0.0543910580649206
 10
0.6357602500733181
 20
0.0637404860877004
 10
0.6334734385435273
 20
0.0750636844296417
 10
0.6299392745744877
 20
0.0845169971670272
 10
0.6248396465215969
 20
0.0935039671806467
 10
0.6193305072193346
 20
0.0997369197906564
 10
0.6125740154778222
 20
0.1059698724006661
 10
0.6044662246227098
 20
0.1114756480686686
 10
0.5956312241348307
 20
0.1161418608642344
 10
0.5888239127436959
 20
0.1192528508157454
 10
0.5815719016762632
 20
0.121953601785197
 10
0.5755696422590006
 20
0.1240205036018037
 10
0.5635969828027552
 20
0.1274049885873122
 10
0.551487495620332
 20
0.1310629668223501
 10
0.543927616429265
 20
0.1335244096370526
 10
0.5415224132151592
 20
0.1346714831136034
 10
0.5385463508602442
 20
0.1361756986627184
 10
0.5348910488686478
 20
0.1388920850882251
 10
0.533107343516292
 20
0.1423634916864894
 10
0.5325050119029245
 20
0.1460679101729527
 10
0.5333985223593784
 20
0.1502080328188161
 10
0.5367660352733185
 20
0.1539673246825133
 10
0.5415594886814579
 20
0.1559094304981239
 10
0.5455216338016877
 20
0.1568190971907529
 10
0.5496303949786487
 20
0.1575321602729677
 10
0.5534760741351218
 20
0.157907120765369
 10
0.5564436225437655
 20
0.1581177043040166
 10
0.5601311102490325
 20
0.1583282896271338
 10
0.5635650354151541
 20
0.1583846128586694
 10
0.5670242498715611
 20
0.1583846128586695
 10
0.5698337641314538
 20
0.1582617717175961
 10
0.5734861322866695
 20
0.1580511863944789
 10
0.5770858249432958
 20
0.1577177599302884
 10
0.5801236124520473
 20
0.157314139548038
 10
0.5836003866834841
 20
0.1568227749837448
 10
0.5880894174688202
 20
0.1560290016155128
 10
0.5917066660739768
 20
0.1552744045050875
 10
0.5952361196304925
 20
0.1544671619561188
 10
0.5988709318371761
 20
0.1535546267455901
 10
0.6023718091461652
 20
0.152550048564412
 10
0.6059188224777057
 20
0.1514620267742664
 10
0.609395596709145
 20
0.1503564547201361
 10
0.6136976650608693
 20
0.1488297138042412
 10
0.616770572119683
 20
0.1477241435345788
 10
0.6204973196401032
 20
0.1462107914982649
 10
0.6246448129924965
 20
0.1445154092302711
 10
0.6246448129924965
 20
0.1514270814951999
 10
0.6246452109477385
 20
0.1514270814951999
 10
0.6246452109477385
 20
0.2079898246154484
 10
0.6183087265250899
 20
0.2097754564615855
 10
0.6097791452055161
 20
0.2118264318820498
 10
0.6010571678326869
 20
0.2138133162723871
 10
0.5932971707260995
 20
0.2151592707323009
 10
0.5831001531185488
 20
0.2166975036360021
 10
0.5736727235504813
 20
0.2178511778676596
 10
0.5646300822624183
 20
0.218620293427275
 10
0.5559722369073397
 20
0.2190689449139125
 10
0.546608939357022
 20
0.2190689449139124
 10
0.5383774839106456
 20
0.2187353507095278
 10
0.5276963231399899
 20
0.217658917268575
 10
0.5169254043299353
 20
0.2160442662149115
 10
0.5083086708124899
 20
0.2139810992943413
 10
0.4978070222941416
 20
0.2103929866348535
 10
0.4875746517204863
 20
0.2055490316893922
 10
0.4808428255509547
 20
0.2010638890805617
 10
0.4742007612473174
 20
0.1954126095005036
 10
0.4687255438028897
 20
0.1888643017555741
 10
0.4641479029259673
 20
0.1815983711218516
 10
0.4615243141201545
 20
0.1760880682530637
 10
0.4591906127487472
 20
0.1694500569778583
 10
0.4571261893220324
 20
0.160659177036278
 10
0.4563183707939286
 20
0.1498948354888737
 10
0.4561431212544952
 20
0.1440940512146693
 10
0.4564123915462019
 20
0.134495846638494
 10
0.4573997261531062
 20
0.12651229311598
 10
0.4591948792881144
 20
0.1188875519300971
 10
0.4615285806595216
 20
0.1112628089597446
 10
0.4645486438540609
 20
0.105324497355082
 10
0.4679612860677482
 20
0.1000603746356155
 10
0.4712255522002773
 20
0.0960196043539882
 10
0.4754542628603439
 20
0.0919046929063178
 10
0.4806173915596861
 20
0.0875406444422783
 10
0.4872942999059035
 20
0.0831291611925498
 10
0.4933777039274824
 20
0.0797186033135902
 10
0.4983482911668549
 20
0.077271898437907
 10
0.5039865669449517
 20
0.0747881229792018
 97
        1
330
1030
 75
     0
 76
     1
 47
0.0114417074434493
 98
        1
 10
0.5194690592595848
 20
0.0991282479340914
  0
LWPOLYLINE
  5
1032
102
{ACAD_REACTORS
330
1033
102
}
330
1024
100
AcDbEntity
  8
0
390
F
100
AcDbPolyline
 90
       15
 70
   128
 43
0.000287063955147
 10
0.6668844234894263
 20
0.2091159973445587
 10
0.6631910237221561
 20
0.2091159973445587
 10
0.6631910237221561
 20
0.1881075385198816
 10
0.6672116627889669
 20
0.1881075385198816
 10
0.6672116627889669
 20
0.2010365976673674
 10
0.6711420412485066
 20
0.1931901732412076
 10
0.6748980248342527
 20
0.1931901732412076
 10
0.6787994030446214
 20
0.2010365976673674
 10
0.6787994030446214
 20
0.1881045279378188
 10
0.6827977079552899
 20
0.1881045279378188
 10
0.6827977079552899
 20
0.2091180394776906
 10
0.6789500640657007
 20
0.2091180394776906
 10
0.6730049519969761
 20
0.1971077155484373
 10
0.6670613798994225
 20
0.2091166557760626
 10
0.666875269046944
 20
0.2091159916561649
  0
HATCH
  5
1033
330
1024
100
AcDbEntity
  8
0
390
F
100
AcDbHatch
 10
0.0
 20
0.0
 30
0.0
210
0.0
220
0.0
230
1.0
  2
SOLID
 70
     1
 71
     1
 91
        1
 92
        7
 72
     0
 73
     1
 93
       13
 10
0.6711420412485066
 20
0.1931901732412076
 10
0.6748980248342528
 20
0.1931901732412076
 10
0.6787994030446214
 20
0.2010365976673675
 10
0.6787994030446213
 20
0.1881045279378188
 10
0.6827977079552899
 20
0.1881045279378188
 10
0.6827977079552899
 20
0.2091180394776906
 10
0.6789500640657007
 20
0.2091180394776906
 10
0.673004951996976
 20
0.1971077155484372
 10
0.6670617057762311
 20
0.2091159973445586
 10
0.6631910237221561
 20
0.2091159973445587
 10
0.6631910237221561
 20
0.1881075385198816
 10
0.6672116627889669
 20
0.1881075385198816
 10
0.6672116627889669
 20
0.2010365976673674
 97
        1
330
1032
 75
     0
 76
     1
 47
0.0010784043344941
 98
        1
 10
0.6698096408423773
 20
0.1993590773957292
  0
LWPOLYLINE
  5
1034
102
{ACAD_REACTORS
330
1035
102
}
330
1024
100
AcDbEntity
  8
0
390
F
100
AcDbPolyline
 90
       10
 70
   128
 43
0.000287063955147
 10
0.6546364335063704
 20
0.2091109232978869
 10
0.6392436318510751
 20
0.2091109232978869
 10
0.6392436318510751
 20
0.2056372519947951
 10
0.6451866184546411
 20
0.2056372519947951
 10
0.6451866184546411
 20
0.1881317085022793
 10
0.6493757944059002
 20
0.1881317085022793
 10
0.6493757944059002
 20
0.2056396638734812
 10
0.6553189700752338
 20
0.2056396638734812
 10
0.6553189700752338
 20
0.2091148113145893
 10
0.6546073387243166
 20
0.2091108920117248
  0
HATCH
  5
1035
330
1024
100
AcDbEntity
  8
0
390
F
100
AcDbHatch
 10
0.0
 20
0.0
 30
0.0
210
0.0
220
0.0
230
1.0
  2
SOLID
 70
     1
 71
     1
 91
        1
 92
        7
 72
     0
 73
     1
 93
        8
 10
0.6493757944059002
 20
0.2056396638734812
 10
0.6553189700752339
 20
0.2056396638734812
 10
0.6553189700752338
 20
0.2091109232978869
 10
0.6392436318510751
 20
0.2091109232978869
 10
0.6392436318510751
 20
0.2056372519947951
 10
0.6451866184546411
 20
0.2056372519947951
 10
0.6451866184546411
 20
0.1881317085022793
 10
0.6493757944059002
 20
0.1881317085022793
 97
        1
330
1034
 75
     0
 76
     1
 47
0.0010784043344941
 98
        1
 10
0.6473689153906826
 20
0.1998234332110673
  0
LWPOLYLINE
  5
1036
102
{ACAD_REACTORS
330
102D
102
}
330
1024
100
AcDbEntity
  8
0
390
F
100
AcDbPolyline
 90
       30
 70
   128
 43
0.0007176598878676
 10
0.3295487054765491
 20
0.1541788290527712
 10
0.3126630666286125
 20
0.1541788290527712
 10
0.3126630666286125
 20
0.1045739652676731
 10
0.3417350439384759
 20
0.1045739652676731
 10
0.347549862610542
 20
0.1055273452156031
 10
0.3519964882037101
 20
0.1070314394207479
 10
0.3552801470012721
 20
0.1089457387030182
 10
0.3584269933786306
 20
0.1117488218980398
 10
0.3598719879926264
 20
0.1136708943323095
 10
0.3611698463090978
 20
0.1159227439893007
 10
0.3624316514112955
 20
0.1191654099936272
 10
0.3630986090899153
 20
0.1216874837508222
 10
0.3634964150981013
 20
0.1239887953515995
 10
0.3637127229042676
 20
0.1264748388718733
 10
0.3638208787205954
 20
0.1291770602447331
 10
0.3636947001236237
 20
0.1323656817859131
 10
0.3634701003077634
 20
0.1349344533426215
 10
0.363154605984171
 20
0.1368677376028824
 10
0.3625723438951027
 20
0.1394367696922343
 10
0.3618749426405152
 20
0.1415940816892975
 10
0.3606179818780824
 20
0.1444392034322552
 10
0.3590567537216565
 20
0.1468446317287588
 10
0.3568937981077678
 20
0.1491687952543552
 10
0.3546983173058784
 20
0.1508265894429819
 10
0.3522914189555024
 20
0.1521430751627388
 10
0.3493803725381515
 20
0.1531345000143967
 10
0.3461708367307956
 20
0.1538397404647753
 10
0.3437314131924189
 20
0.1540997859472082
 10
0.3413895652180408
 20
0.1541810507181154
 10
0.3287208284736813
 20
0.1541810507181154
  0
ENDBLK
  5
1026
330
1024
100
AcDbEntity
  8
0
380
     2
100
AcDbBlockEnd
  0
BLOCK
  5
33DC
330
32D9
100
AcDbEntity
  8
0
100
AcDbBlockBegin
  2
LVMGRID
 70
     0
 10
0.0
 20
0.0
 30
0.0
  3
LVMGRID
  1

  0
LINE
  5
32DA
330
32D9
100
AcDbEntity
  8
0
  6
Continuous
 62
     7
370
    15
100
AcDbLine
 10
-0.5400141010118063
 20
-0.3859031381945073
 30
0.0
 11
2.037764542798797
 21
-0.0007076207413093
 31
0.0
  0
LINE
  5
32DB
330
32D9
100
AcDbEntity
  8
0
  6
Continuous
 62
     7
370
    15
100
AcDbLine
 10
-0.5400141010118063
 20
-0.3768475837931646
 30
0.0
 11
2.037764542798797
 21
0.0083479336600334
 31
0.0
  0
LINE
  5
32DC
330
32D9
100
AcDbEntity
  8
0
  6
Continuous
 62
     7
370
    15
100
AcDbLine
 10
-0.9344251765561892
 20
0.7512364978777129
 30
0.0
 11
1.545925756574021
 21
1.12187346604665
 31
0.0
  0
LINE
  5
32DD
330
32D9
100
AcDbEntity
  8
0
  6
Continuous
 62
     7
370
    15
100
AcDbLine
 10
-0.5334876732204492
 20
-0.3416006044717363
 30
0.0
 11
1.946863259909761
 21
0.029036363697216
 31
0.0
  0
LINE
  5
32DE
330
32D9
100
AcDbEntity
  8
0
  6
Continuous
 62
     7
370
    15
100
AcDbLine
 10
1.987458205183116
 20
0.9337152720792971
 30
0.0
 11
-0.5740826140283986
 21
0.5509461605022495
 31
0.0
  0
LINE
  5
32DF
330
32D9
100
AcDbEntity
  8
0
  6
Continuous
 62
     7
370
    15
100
AcDbLine
 10
-0.5815826115544525
 20
0.5687972177373127
 30
0.0
 11
1.979958207657048
 21
0.9515663293143745
 31
0.0
  0
LINE
  5
32E0
330
32D9
100
AcDbEntity
  8
0
  6
Continuous
 62
     7
370
    15
100
AcDbLine
 10
-0.9831391053272682
 20
-0.1782000788063556
 30
0.0
 11
-0.9831391053272682
 21
0.7349016849775581
 31
0.0
  0
LINE
  5
32E1
330
32D9
100
AcDbEntity
  8
0
  6
Continuous
 62
     7
370
    15
100
AcDbLine
 10
-0.5968890998203023
 20
-0.3320327018056162
 30
0.0
 11
-0.5968890998203023
 21
0.5617505444463973
 31
0.0
  0
LINE
  5
32E2
330
32D9
100
AcDbEntity
  8
0
  6
Continuous
 62
     7
370
    15
100
AcDbLine
 10
-0.5778326127914255
 20
0.5526272389580385
 30
0.0
 11
-0.5778326127914255
 21
-0.3007078242728625
 31
0.0
  0
LINE
  5
32E3
330
32D9
100
AcDbEntity
  8
0
  6
Continuous
 62
     7
370
    15
100
AcDbLine
 10
-0.5740826140283986
 20
0.5509461605022495
 30
0.0
 11
-0.5740826140283986
 21
-0.3023889027286657
 31
0.0
  0
LINE
  5
32E4
330
32D9
100
AcDbEntity
  8
0
  6
Continuous
 62
     7
370
    15
100
AcDbLine
 10
-0.9858185894352402
 20
0.7310549806372962
 30
0.0
 11
-0.9858185894352402
 21
-0.1691770038253679
 31
0.0
  0
LINE
  5
32E5
330
32D9
100
AcDbEntity
  8
0
  6
Continuous
 62
     8
370
    15
100
AcDbLine
 10
-0.942514117963924
 20
-0.1770932448880131
 30
0.0
 11
-0.9159856144234623
 21
-0.1889856476818608
 31
0.0
  0
LINE
  5
32E6
330
32D9
100
AcDbEntity
  8
0
  6
Continuous
 62
     7
370
    15
100
AcDbLine
 10
-1.040014094969208
 20
-0.1617592728613175
 30
0.0
 11
-0.5400141010118063
 21
-0.3859031381945073
 31
0.0
  0
LINE
  5
32E7
330
32D9
100
AcDbEntity
  8
0
  6
Continuous
 62
     7
370
    15
100
AcDbLine
 10
-1.040014094969208
 20
-0.1527037184599749
 30
0.0
 11
-0.9159856144234623
 21
-0.2083041652137751
 31
0.0
  0
LINE
  5
32E8
330
32D9
100
AcDbEntity
  8
0
  6
Continuous
 62
     7
370
    15
100
AcDbLine
 10
-0.9333749085163844
 20
-0.192755161088499
 30
0.0
 11
-0.9159856127323564
 21
-0.2005505691276141
 31
0.0
  0
LINE
  5
32E9
330
32D9
100
AcDbEntity
  8
0
  6
Continuous
 62
     7
370
    15
100
AcDbLine
 10
-0.9858185860512378
 20
-0.1446053244604002
 30
0.0
 11
-1.040014094969208
 21
-0.1527037184599749
 31
0.0
  0
LINE
  5
32EA
330
32D9
100
AcDbEntity
  8
0
  6
Continuous
 62
     7
370
    15
100
AcDbLine
 10
-1.040014094969208
 20
-0.1617592728613175
 30
0.0
 11
-1.040014094969208
 21
-0.1527037184599749
 31
0.0
  0
ARC
  5
32EB
330
32D9
100
AcDbEntity
  8
0
  6
Continuous
 62
     7
370
    15
100
AcDbCircle
 10
-0.9259932082337343
 20
-0.1779502492122873
 30
0.0
 40
0.016543122883093
100
AcDbArc
 50
177.0305050380379
 51
243.4992452253956
  0
LINE
  5
32EC
330
32D9
100
AcDbEntity
  8
0
  6
Continuous
 62
     7
370
    15
100
AcDbLine
 10
-0.9831391053272682
 20
-0.1782000788063556
 30
0.0
 11
-0.9443890829708436
 21
-0.1955712386017296
 31
0.0
  0
LINE
  5
32ED
330
32D9
100
AcDbEntity
  8
0
  6
Continuous
 62
     7
370
    15
100
AcDbLine
 10
-0.9443890829708436
 20
-0.1726305004160622
 30
0.0
 11
-0.9443890829708436
 21
-0.1955712386017296
 31
0.0
  0
LINE
  5
32EE
330
32D9
100
AcDbEntity
  8
0
  6
Continuous
 62
     7
370
    15
100
AcDbLine
 10
-0.9332920646021847
 20
-0.1927922991808657
 30
0.0
 11
-0.9378938940747048
 21
-0.1934799470862174
 31
0.0
  0
LINE
  5
32EF
330
32D9
100
AcDbEntity
  8
0
  6
Continuous
 62
     7
370
    15
100
AcDbLine
 10
-0.9378938926003286
 20
-0.1946006672061742
 30
0.0
 11
-0.9378938926003286
 21
-0.1895386057520198
 31
0.0
  0
LINE
  5
32F0
330
32D9
100
AcDbEntity
  8
0
  6
Continuous
 62
     7
370
    15
100
AcDbLine
 10
-0.9378938926003286
 20
-0.1946006672061742
 30
0.0
 11
-0.9443890829708436
 21
-0.1955712386017296
 31
0.0
  0
SPLINE
  5
32F1
330
32D9
100
AcDbEntity
  8
0
  6
Continuous
 62
     7
370
    15
100
AcDbSpline
210
0.0
220
0.0
230
1.0
 70
     8
 71
     3
 72
     9
 73
     5
 74
     0
 42
0.0000000001
 43
0.0000000001
 40
0.0
 40
0.0
 40
0.0
 40
0.0
 40
0.2494630125671603
 40
1.0
 40
1.0
 40
1.0
 40
1.0
 10
-0.9854778482995527
 20
-0.1691827839200926
 30
0.0
 10
-0.9855761089453096
 20
-0.1699425834268453
 30
0.0
 10
-0.9859699975813214
 20
-0.172988323550527
 30
0.0
 10
-0.9843528410891195
 20
-0.1759655558473838
 30
0.0
 10
-0.9831391053272682
 20
-0.1782000788063556
 30
0.0
  0
LINE
  5
32F2
330
32D9
100
AcDbEntity
  8
0
  6
Continuous
 62
     7
370
    15
100
AcDbLine
 10
-0.942514117963924
 20
-0.1734710242342601
 30
0.0
 11
-0.9443890829708436
 21
-0.1726305004160622
 31
0.0
  0
LINE
  5
32F3
330
32D9
100
AcDbEntity
  8
0
  6
Continuous
 62
     7
370
    15
100
AcDbLine
 10
-0.942514117963924
 20
-0.1770932448880131
 30
0.0
 11
-0.942514117963924
 21
-0.1734710242342601
 31
0.0
  0
ARC
  5
32F4
330
32D9
100
AcDbEntity
  8
0
  6
Continuous
 62
     7
370
    15
100
AcDbCircle
 10
-0.5437264898500303
 20
-0.0961475515624102
 30
0.0
 40
0.0097659630654967
100
AcDbArc
 50
273.6966074734162
 51
2.324336374408547
  0
LWPOLYLINE
  5
32F5
330
32D9
100
AcDbEntity
  8
0
  6
Continuous
 62
     7
370
    15
100
AcDbPolyline
 90
        7
 70
   128
 43
0.0
 10
-0.5428865582021416
 20
-0.1064768855975018
 10
-0.5412200342513103
 20
-0.1072754183962843
 10
-0.5381751728200328
 20
-0.1074959507424182
 10
-0.5351303113887554
 20
-0.1063654357044754
 10
-0.5325490012986905
 20
-0.1040559742949512
 10
-0.5308242248220268
 20
-0.1009191516658348
 10
-0.5302185628796252
 20
-0.097432559700323
  0
LINE
  5
32F6
330
32D9
100
AcDbEntity
  8
0
  6
Continuous
 62
     7
370
    15
100
AcDbLine
 10
-0.766883088622933
 20
-0.1109608330567369
 30
0.0
 11
-0.8293830832843269
 21
-0.082942851944722
 31
0.0
  0
LINE
  5
32F7
330
32D9
100
AcDbEntity
  8
0
  6
Continuous
 62
     7
370
    15
100
AcDbLine
 10
-0.7587641006598034
 20
-0.022210589427857
 30
0.0
 11
-0.7587641006598034
 21
-0.1097476188123068
 31
0.0
  0
LINE
  5
32F8
330
32D9
100
AcDbEntity
  8
0
  6
Continuous
 62
     7
370
    15
100
AcDbLine
 10
-0.766883088622933
 20
-0.0234238036722871
 30
0.0
 11
-0.766883088622933
 21
-0.1109608330567369
 31
0.0
  0
LINE
  5
32F9
330
32D9
100
AcDbEntity
  8
0
  6
Continuous
 62
     7
370
    15
100
AcDbLine
 10
-0.8375020712474565
 20
-0.0932116288913108
 30
0.0
 11
-0.7750020765860626
 21
-0.1212296100033399
 31
0.0
  0
LINE
  5
32FA
330
32D9
100
AcDbEntity
  8
0
  6
Continuous
 62
     7
370
    15
100
AcDbLine
 10
-0.8997476487737543
 20
-0.1025129385681538
 30
0.0
 11
-0.8375020712474565
 21
-0.0932116288913108
 31
0.0
  0
ARC
  5
32FB
330
32D9
100
AcDbEntity
  8
0
  6
Continuous
 62
     7
370
    15
100
AcDbCircle
 10
-0.5393099894639022
 20
-0.098127382352601
 30
0.0
 40
0.0122631065405664
100
AcDbArc
 50
266.4796433762782
 51
2.833279582355824
  0
LWPOLYLINE
  5
32FC
330
32D9
100
AcDbEntity
  8
0
  6
Continuous
 62
     7
370
    15
100
AcDbPolyline
 90
       17
 70
   128
 43
0.0
 10
-0.5233118746425447
 20
-0.0992022966003106
 10
-0.5240864593837245
 20
-0.0949747119275628
 10
-0.5262922955071048
 20
-0.0916222487617375
 10
-0.5295935617261023
 20
-0.0896552684012448
 10
-0.533487673220435
 20
-0.0893732210965936
 10
-0.5373817807455197
 20
-0.0908190560920304
 10
-0.5406830509337653
 20
-0.0937726484853272
 10
-0.5428888830879118
 20
-0.097784343912636
 10
-0.5436634717983253
 20
-0.1022434204052018
 10
-0.5428888830879118
 20
-0.1064709867763867
 10
-0.5406830509337653
 20
-0.1098234505353304
 10
-0.5373817807455197
 20
-0.1117904303027046
 10
-0.533487673220435
 20
-0.1120724782004743
 10
-0.5295935617261023
 20
-0.1106266426119191
 10
-0.5262922955071048
 20
-0.1076730508117407
 10
-0.5240864593837245
 20
-0.1036613547913134
 10
-0.5233118746425447
 20
-0.0992022966003106
  0
LINE
  5
32FD
330
32D9
100
AcDbEntity
  8
0
  6
Continuous
 62
     8
370
    15
100
AcDbLine
 10
-0.8453666502197592
 20
-0.220643263269352
 30
0.0
 11
-0.5968890998203023
 21
-0.3320327018056162
 31
0.0
  0
LINE
  5
32FE
330
32D9
100
AcDbEntity
  8
0
  6
Continuous
 62
     7
370
    15
100
AcDbLine
 10
-0.8496655472252001
 20
-0.238034637995014
 30
0.0
 11
-0.5400141010118063
 21
-0.3768475837931646
 31
0.0
  0
LINE
  5
32FF
330
32D9
100
AcDbEntity
  8
0
  6
Continuous
 62
     7
370
    15
100
AcDbLine
 10
-0.8453666485286532
 20
-0.2322081847150912
 30
0.0
 11
-0.58087874183218
 21
-0.3507748696296602
 31
0.0
  0
LINE
  5
3300
330
32D9
100
AcDbEntity
  8
0
  6
Continuous
 62
     7
370
    15
100
AcDbLine
 10
-0.7750020765860626
 20
-0.1212296100033399
 30
0.0
 11
-0.8372476541123603
 21
-0.1305309196801829
 31
0.0
  0
LINE
  5
3301
330
32D9
100
AcDbEntity
  8
0
  6
Continuous
 62
     7
370
    15
100
AcDbLine
 10
-0.7750020765860626
 20
-0.1302851549970683
 30
0.0
 11
-0.8372476541123603
 21
-0.1395864646739113
 31
0.0
  0
LINE
  5
3302
330
32D9
100
AcDbEntity
  8
0
  6
Continuous
 62
     7
370
    15
100
AcDbLine
 10
-0.8453666415793321
 20
-0.2373922665037185
 30
0.0
 11
-0.8453666415793321
 21
-0.1498552415463763
 31
0.0
  0
LINE
  5
3303
330
32D9
100
AcDbEntity
  8
0
  6
Continuous
 62
     7
370
    15
100
AcDbLine
 10
-0.9159856237076979
 20
-0.1230504746046392
 30
0.0
 11
-0.9159856237076979
 21
-0.2105874995619814
 31
0.0
  0
LINE
  5
3304
330
32D9
100
AcDbEntity
  8
0
  6
Continuous
 62
     7
370
    15
100
AcDbLine
 10
-0.8534856290463039
 20
-0.2386054806740105
 30
0.0
 11
-0.8534856290463039
 21
-0.1510684557166542
 31
0.0
  0
LINE
  5
3305
330
32D9
100
AcDbEntity
  8
0
  6
Continuous
 62
     7
370
    15
100
AcDbLine
 10
-0.9159856237076979
 20
-0.2105874995619814
 30
0.0
 11
-0.8534856290463039
 21
-0.2386054806740105
 31
0.0
  0
LINE
  5
3306
330
32D9
100
AcDbEntity
  8
0
  6
Continuous
 62
     7
370
    15
100
AcDbLine
 10
-0.8453666415793321
 20
-0.2373922665037185
 30
0.0
 11
-0.8534856290463039
 21
-0.2386054806740105
 31
0.0
  0
LINE
  5
3307
330
32D9
100
AcDbEntity
  8
0
  6
Continuous
 62
     7
370
    15
100
AcDbLine
 10
-0.8534856290463039
 20
-0.1510684557166542
 30
0.0
 11
-0.9159856237076979
 21
-0.1230504746046392
 31
0.0
  0
LINE
  5
3308
330
32D9
100
AcDbEntity
  8
0
  6
Continuous
 62
     7
370
    15
100
AcDbLine
 10
-0.8997476487737543
 20
-0.1025129385681538
 30
0.0
 11
-0.8372476541123603
 21
-0.1305309196801829
 31
0.0
  0
ARC
  5
3309
330
32D9
100
AcDbEntity
  8
0
  6
Continuous
 62
     7
370
    15
100
AcDbCircle
 10
-0.8953739031651224
 20
-0.1226590690011449
 30
0.0
 40
0.0206154364996755
100
AcDbArc
 50
102.2488916351112
 51
181.0878856087667
  0
ARC
  5
330A
330
32D9
100
AcDbEntity
  8
0
  6
Continuous
 62
     7
370
    15
100
AcDbCircle
 10
-0.8350607717358684
 20
-0.1496595376273717
 30
0.0
 40
0.0103077278414934
100
AcDbArc
 50
102.2489345068909
 51
181.0878908077402
  0
LINE
  5
330B
330
32D9
100
AcDbEntity
  8
0
  6
Continuous
 62
     7
370
    15
100
AcDbLine
 10
-0.8372476541123603
 20
-0.1395864646739113
 30
0.0
 11
-0.8372476541123603
 21
-0.1305309196801829
 31
0.0
  0
ARC
  5
330C
330
32D9
100
AcDbEntity
  8
0
  6
Continuous
 62
     7
370
    15
100
AcDbCircle
 10
-0.8328739085037284
 20
-0.1506770501131598
 30
0.0
 40
0.0206154364996752
100
AcDbArc
 50
102.2488916351104
 51
181.0878856087667
  0
LINE
  5
330D
330
32D9
100
AcDbEntity
  8
0
  6
Continuous
 62
     7
370
    15
100
AcDbLine
 10
-0.8453666415793321
 20
-0.1498552415463763
 30
0.0
 11
-0.8534856290463039
 21
-0.1510684557166542
 31
0.0
  0
ARC
  5
330E
330
32D9
100
AcDbEntity
  8
0
  6
Continuous
 62
     7
370
    15
100
AcDbCircle
 10
-0.779375814591532
 20
-0.1101390295768141
 30
0.0
 40
0.0206154299879864
100
AcDbArc
 50
282.2488739406348
 51
1.087900298821747
  0
ARC
  5
330F
330
32D9
100
AcDbEntity
  8
0
  6
Continuous
 62
     7
370
    15
100
AcDbCircle
 10
-0.7771889644646138
 20
-0.11115653220034
 30
0.0
 40
0.0103077337479628
100
AcDbArc
 50
282.2489586749536
 51
1.087863635255635
  0
LINE
  5
3310
330
32D9
100
AcDbEntity
  8
0
  6
Continuous
 62
     7
370
    15
100
AcDbLine
 10
-0.7750020765860626
 20
-0.1212296100033399
 30
0.0
 11
-0.7750020765860626
 21
-0.1302851549970683
 31
0.0
  0
LINE
  5
3311
330
32D9
100
AcDbEntity
  8
0
  6
Continuous
 62
     7
370
    15
100
AcDbLine
 10
-0.766883088622933
 20
-0.1109608330567369
 30
0.0
 11
-0.7587641006598034
 21
-0.1097476188123068
 31
0.0
  0
LINE
  5
3312
330
32D9
100
AcDbEntity
  8
0
  6
Continuous
 62
     7
370
    15
100
AcDbLine
 10
-0.5056992189829117
 20
-0.3437019530153975
 30
0.0
 11
-0.5695685926133791
 21
-0.3532459053186869
 31
0.0
  0
LINE
  5
3313
330
32D9
100
AcDbEntity
  8
0
  6
Continuous
 62
     7
370
    15
100
AcDbLine
 10
-0.5695685926133791
 20
-0.346001461797627
 30
0.0
 11
-0.5695685926133791
 21
-0.3532459053186869
 31
0.0
  0
SPLINE
  5
3314
330
32D9
100
AcDbEntity
  8
0
  6
Continuous
 62
     7
370
    15
100
AcDbSpline
210
0.0
220
0.0
230
1.0
 70
     8
 71
     3
 72
    11
 73
     7
 74
     0
 42
0.0000000001
 43
0.0000000001
 40
0.0
 40
0.0
 40
0.0
 40
0.0
 40
0.2500000343534618
 40
0.5000000666977569
 40
0.7499999656464859
 40
1.0
 40
1.0
 40
1.0
 40
1.0
 10
-0.5695685926133649
 20
-0.3532459053186869
 30
0.0
 10
-0.5726715544448667
 20
-0.3529210931899627
 30
0.0
 10
-0.57887747808293
 20
-0.3522714689351005
 30
0.0
 10
-0.5871026850219466
 20
-0.3475388728698761
 30
0.0
 10
-0.5936080359767147
 20
-0.3406310300838555
 30
0.0
 10
-0.5957954116749847
 20
-0.3348988117491416
 30
0.0
 10
-0.5968890998202881
 20
-0.3320327018056162
 30
0.0
  0
ARC
  5
3315
330
32D9
100
AcDbEntity
  8
0
  6
Continuous
 62
     7
370
    15
100
AcDbCircle
 10
-0.5377990348069375
 20
-0.3054447159240112
 30
0.0
 40
0.0364120325634845
100
AcDbArc
 50
175.1858942064169
 51
276.8000514023123
  0
LINE
  5
3316
330
32D9
100
AcDbEntity
  8
0
  6
Continuous
 62
     7
370
    15
100
AcDbLine
 10
-0.5400141010118063
 20
-0.3859031381945073
 30
0.0
 11
-0.5400141010118063
 21
-0.3768475837931646
 31
0.0
  0
LINE
  5
3317
330
32D9
100
AcDbEntity
  8
0
  6
Continuous
 62
     7
370
    15
100
AcDbLine
 10
-0.54193314741525
 20
-0.3418719180764498
 30
0.0
 11
-0.5695685926133791
 21
-0.346001461797627
 31
0.0
  0
LINE
  5
3318
330
32D9
100
AcDbEntity
  8
0
  6
Continuous
 62
     7
370
    15
100
AcDbLine
 10
-0.5695685926133791
 20
-0.3447940541751961
 30
0.0
 11
-0.5459825394399332
 21
-0.3412696080484352
 31
0.0
  0
LINE
  5
3319
330
32D9
100
AcDbEntity
  8
0
  6
Continuous
 62
     7
370
    15
100
AcDbLine
 10
-0.5564125907417861
 20
-0.337415437709808
 30
0.0
 11
-0.5526625919787591
 21
-0.3390965161656112
 31
0.0
  0
LINE
  5
331A
330
32D9
100
AcDbEntity
  8
0
  6
Continuous
 62
     8
370
    15
100
AcDbLine
 10
-0.5695685926133791
 20
-0.3447940541751961
 30
0.0
 11
-0.5695685926133791
 21
-0.32685395684166
 31
0.0
  0
SPLINE
  5
331B
330
32D9
100
AcDbEntity
  8
0
  6
Continuous
 62
     7
370
    15
100
AcDbSpline
210
0.0
220
0.0
230
1.0
 70
     8
 71
     3
 72
    10
 73
     6
 74
     0
 42
0.0000000001
 43
0.0000000001
 40
0.0
 40
0.0
 40
0.0
 40
0.0
 40
0.4538224106270703
 40
0.9076448110084378
 40
1.0
 40
1.0
 40
1.0
 40
1.0
 10
-0.5695685926133649
 20
-0.346001461797627
 30
0.0
 10
-0.571796442773632
 20
-0.3456376160723096
 30
0.0
 10
-0.5762521430438739
 20
-0.3449099246298886
 30
0.0
 10
-0.5809810650631278
 20
-0.3426572651359123
 30
0.0
 10
-0.5828872428231762
 20
-0.3407380928992438
 30
0.0
 10
-0.5832095654719041
 20
-0.3404135729664119
 30
0.0
  0
SPLINE
  5
331C
330
32D9
100
AcDbEntity
  8
0
  6
Continuous
 62
     7
370
    15
100
AcDbSpline
210
0.0
220
0.0
230
1.0
 70
     8
 71
     3
 72
    12
 73
     8
 74
     0
 42
0.0000000001
 43
0.0000000001
 40
0.0
 40
0.0
 40
0.0
 40
0.0
 40
0.2280720419030571
 40
0.4562157594088636
 40
0.6843596799728106
 40
0.9125034858960543
 40
1.0
 40
1.0
 40
1.0
 40
1.0
 10
-0.5968890998202881
 20
-0.3320327018056162
 30
0.0
 10
-0.5954784992619011
 20
-0.333362162372822
 30
0.0
 10
-0.5926568548394045
 20
-0.3360215013132972
 30
0.0
 10
-0.5861659902988379
 20
-0.3394035247662828
 30
0.0
 10
-0.5790117592122641
 20
-0.3421667429236663
 30
0.0
 10
-0.5732964626813839
 20
-0.3438445233561822
 30
0.0
 10
-0.5703776867183166
 20
-0.3445879687231468
 30
0.0
 10
-0.5695685926133649
 20
-0.3447940541751819
 30
0.0
  0
ARC
  5
331D
330
32D9
100
AcDbEntity
  8
0
  6
Continuous
 62
     7
370
    15
100
AcDbCircle
 10
-0.5391117328735789
 20
-0.3027164270093721
 30
0.0
 40
0.0387729419384824
100
AcDbArc
 50
177.0305065597671
 51
243.4992470989054
  0
LINE
  5
331E
330
32D9
100
AcDbEntity
  8
0
  6
Continuous
 62
     7
370
    15
100
AcDbLine
 10
-0.5778326127914255
 20
-0.3007078242728625
 30
0.0
 11
-0.5740826140283986
 21
-0.3023889027286657
 31
0.0
  0
LINE
  5
331F
330
32D9
100
AcDbEntity
  8
0
  6
Continuous
 62
     7
370
    15
100
AcDbLine
 10
-0.5056992189829117
 20
-0.3437019530153975
 30
0.0
 11
-0.5056992189829117
 21
-0.3374481968550356
 31
0.0
  0
LINE
  5
3320
330
32D9
100
AcDbEntity
  8
0
  6
Continuous
 62
     8
370
    15
100
AcDbLine
 10
-0.5432912233580396
 20
-0.1052294982088426
 30
0.0
 11
-0.5386444849429921
 21
-0.1045351395940912
 31
0.0
  0
LINE
  5
3321
330
32D9
100
AcDbEntity
  8
0
  6
Continuous
 62
     7
370
    15
100
AcDbLine
 10
-0.8293830832843269
 20
0.004594177439742
 30
0.0
 11
-0.766883088622933
 21
-0.0234238036722871
 31
0.0
  0
LINE
  5
3322
330
32D9
100
AcDbEntity
  8
0
  6
Continuous
 62
     7
370
    15
100
AcDbLine
 10
-0.8212640953211973
 20
0.0058073916841579
 30
0.0
 11
-0.8293830832843269
 21
0.004594177439742
 31
0.0
  0
LINE
  5
3323
330
32D9
100
AcDbEntity
  8
0
  6
Continuous
 62
     7
370
    15
100
AcDbLine
 10
-0.8293830832843269
 20
-0.082942851944722
 30
0.0
 11
-0.8293830832843269
 21
0.004594177439742
 31
0.0
  0
ARC
  5
3324
330
32D9
100
AcDbEntity
  8
0
  6
Continuous
 62
     7
370
    15
100
AcDbCircle
 10
-0.8396889591260077
 20
-0.0831385510883109
 30
0.0
 40
0.0103077337479616
100
AcDbArc
 50
282.2489586749478
 51
1.087863635258891
  0
LINE
  5
3325
330
32D9
100
AcDbEntity
  8
0
  6
Continuous
 62
     7
370
    15
100
AcDbLine
 10
-0.8212640953211973
 20
0.0058073916841579
 30
0.0
 11
-0.7587641006598034
 21
-0.022210589427857
 31
0.0
  0
ARC
  5
3326
330
32D9
100
AcDbEntity
  8
0
  6
Continuous
 62
     7
370
    15
100
AcDbCircle
 10
-0.7899008086476443
 20
-0.0367041181503254
 30
0.0
 40
0.0226001333830512
100
AcDbArc
 50
177.7079001323317
 51
216.3084485297082
  0
LWPOLYLINE
  5
3327
330
32D9
100
AcDbEntity
  8
0
  6
Continuous
 62
     7
370
    15
100
AcDbPolyline
 90
        3
 70
   128
 43
0.0
 10
-0.8124828600961109
 20
-0.0358002479658239
 10
-0.8120207004350135
 20
-0.0312314102729658
 10
-0.8112842772755755
 20
-0.028863269997828
  0
ARC
  5
3328
330
32D9
100
AcDbEntity
  8
0
  6
Continuous
 62
     7
370
    15
100
AcDbCircle
 10
-0.7586508740011908
 20
-0.0507131573796471
 30
0.0
 40
0.0226000540485029
100
AcDbArc
 50
177.7077894385933
 51
216.3084431915895
  0
LWPOLYLINE
  5
3329
330
32D9
100
AcDbEntity
  8
0
  6
Continuous
 62
     7
370
    15
100
AcDbPolyline
 90
        3
 70
   128
 43
0.0
 10
-0.7812328444322816
 20
-0.0498092467403524
 10
-0.7807707031043094
 20
-0.0452404008289875
 10
-0.7800342799448714
 20
-0.0428722605538496
  0
ARC
  5
332A
330
32D9
100
AcDbEntity
  8
0
  6
Continuous
 62
     7
370
    15
100
AcDbCircle
 10
-0.7901497189184852
 20
-0.0365536492621317
 30
0.0
 40
0.0224902532261963
100
AcDbArc
 50
160.0047182064547
 51
216.9928518359145
  0
ARC
  5
332B
330
32D9
100
AcDbEntity
  8
0
  6
Continuous
 62
     7
370
    15
100
AcDbCircle
 10
-0.7588991349231549
 20
-0.0505625521532522
 30
0.0
 40
0.0224907745525404
100
AcDbArc
 50
160.0054391206054
 51
216.9921309217634
  0
LWPOLYLINE
  5
332C
330
32D9
100
AcDbEntity
  8
0
  6
Continuous
 62
     7
370
    15
100
AcDbPolyline
 90
       18
 70
   128
 43
0.0
 10
-0.7756643421811305
 20
-0.0571583949856063
 10
-0.7761264835091027
 20
-0.0521752044949011
 10
-0.7774505015472642
 20
-0.0474506750109782
 10
-0.7794575750280473
 20
-0.0436228741779701
 10
-0.7818766304162495
 20
-0.0412087857206274
 10
-0.7843809714858879
 20
-0.0405344270872519
 10
-0.786632370477534
 20
-0.0416908764931776
 10
-0.7883267542372039
 20
-0.0445219736821656
 10
-0.7892353070748613
 20
-0.0486453129966833
 10
-0.7892353070748613
 20
-0.0535040650087382
 10
-0.7883267542372039
 20
-0.0584420082210926
 10
-0.786632370477534
 20
-0.0627922306210138
 10
-0.7843809714858879
 20
-0.0659672291409095
 10
-0.7818766304162495
 20
-0.0675382012845205
 10
-0.7794575750280473
 20
-0.0672929785540504
 10
-0.7774505015472642
 20
-0.0652646705747486
 10
-0.7761264835091027
 20
-0.0617272231885409
 10
-0.7756643421811305
 20
-0.0571583949856063
  0
LWPOLYLINE
  5
332D
330
32D9
100
AcDbEntity
  8
0
  6
Continuous
 62
     7
370
    15
100
AcDbPolyline
 90
       18
 70
   128
 43
0.0
 10
-0.8069143395118345
 20
-0.0431494044295988
 10
-0.8073764808398067
 20
-0.0381662139388936
 10
-0.8087004988779682
 20
-0.0334416844549708
 10
-0.8107075723587513
 20
-0.0296138836219484
 10
-0.8131266277469535
 20
-0.0271997951646057
 10
-0.8156309688165919
 20
-0.0265254365312444
 10
-0.817882367808238
 20
-0.0276818859371701
 10
-0.819576769901019
 20
-0.0305129749076372
 10
-0.8204853044055511
 20
-0.0346363224406616
 10
-0.8204853044055511
 20
-0.0394950744527307
 10
-0.819576769901019
 20
-0.0444330094465784
 10
-0.817882367808238
 20
-0.0487832400649921
 10
-0.8156309688165919
 20
-0.0519582385848878
 10
-0.8131266277469535
 20
-0.053529210728513
 10
-0.8107075723587513
 20
-0.0532839879980429
 10
-0.8087004988779682
 20
-0.0512556800187269
 10
-0.8073764808398067
 20
-0.0477182326325334
 10
-0.8069143395118345
 20
-0.0431494044295988
  0
LINE
  5
332E
330
32D9
100
AcDbEntity
  8
0
  6
Continuous
 62
     7
370
    15
100
AcDbLine
 10
-0.7587641006598034
 20
-0.022210589427857
 30
0.0
 11
-0.766883088622933
 21
-0.0234238036722871
 31
0.0
  0
LWPOLYLINE
  5
332F
330
32D9
100
AcDbEntity
  8
0
  6
Continuous
 62
     7
370
    15
100
AcDbPolyline
 90
        3
 70
   128
 43
0.0
 10
-0.5339685616426522
 20
-0.0957514812445197
 10
-0.5345742235850537
 20
-0.0924458787845595
 10
-0.536021050254206
 20
-0.0901091403866161
  0
ARC
  5
3330
330
32D9
100
AcDbEntity
  8
0
  6
Continuous
 62
     7
370
    15
100
AcDbCircle
 10
-0.5375071241598164
 20
-0.0968897159268068
 30
0.0
 40
0.007308748517863
100
AcDbArc
 50
355.7405396273987
 51
73.61487253379675
  0
ARC
  5
3331
330
32D9
100
AcDbEntity
  8
0
  6
Continuous
 62
     7
370
    15
100
AcDbCircle
 10
-0.5370452406860978
 20
-0.0970859659484518
 30
0.0
 40
0.0099928507810356
100
AcDbArc
 50
357.5036146946456
 51
50.30172420034091
  0
LINE
  5
3332
330
32D9
100
AcDbEntity
  8
0
  6
Continuous
 62
     7
370
    15
100
AcDbLine
 10
-0.8538313970307882
 20
0.6808169107492859
 30
0.0
 11
-0.9766439149567673
 21
0.7358722563730993
 31
0.0
  0
LINE
  5
3333
330
32D9
100
AcDbEntity
  8
0
  6
Continuous
 62
     7
370
    15
100
AcDbLine
 10
-0.860326587401289
 20
0.6798463393537446
 30
0.0
 11
-0.9831391053272682
 21
0.7349016849775581
 31
0.0
  0
LINE
  5
3334
330
32D9
100
AcDbEntity
  8
0
  6
Continuous
 62
     7
370
    15
100
AcDbLine
 10
-0.8505338221071099
 20
0.6821202968712896
 30
0.0
 11
-0.9515826147828363
 21
0.727419231373915
 31
0.0
  0
LINE
  5
3335
330
32D9
100
AcDbEntity
  8
0
  6
Continuous
 62
     7
370
    15
100
AcDbLine
 10
-0.8471678609909787
 20
0.6878558279445315
 30
0.0
 11
-0.9515826147828363
 21
0.7346636815356505
 31
0.0
  0
SPLINE
  5
3336
330
32D9
100
AcDbEntity
  8
0
  6
Continuous
 62
     7
370
    15
100
AcDbSpline
210
0.0
220
0.0
230
1.0
 70
     8
 71
     3
 72
     9
 73
     5
 74
     0
 42
0.0000000001
 43
0.0000000001
 40
0.0
 40
0.0
 40
0.0
 40
0.0
 40
0.7505381261953508
 40
1.0
 40
1.0
 40
1.0
 40
1.0
 10
-0.9831391053272682
 20
0.7349016849775581
 30
0.0
 10
-0.9843528420503417
 20
0.7339164273366521
 30
0.0
 10
-0.9859699973695938
 20
0.7326036923715407
 30
0.0
 10
-0.9855761085440377
 20
0.73135956330961
 30
0.0
 10
-0.9854778482995527
 20
0.7310492005425573
 30
0.0
  0
LINE
  5
3337
330
32D9
100
AcDbEntity
  8
0
  6
Continuous
 62
     7
370
    15
100
AcDbLine
 10
-0.975561382897581
 20
0.7360340183217886
 30
0.0
 11
-0.946498875296811
 21
0.7230056525845186
 31
0.0
  0
ARC
  5
3338
330
32D9
100
AcDbEntity
  8
0
  6
Continuous
 62
     7
370
    15
100
AcDbCircle
 10
-0.9499288905140872
 20
0.73541512742095
 30
0.0
 40
0.0081651183428093
100
AcDbArc
 50
193.6712020385775
 51
258.3147472701807
  0
LINE
  5
3339
330
32D9
100
AcDbEntity
  8
0
  6
Continuous
 62
     7
370
    15
100
AcDbLine
 10
-0.9515826147828363
 20
0.7346636815356505
 30
0.0
 11
-0.9515826147828363
 21
0.727419231373915
 31
0.0
  0
LINE
  5
333A
330
32D9
100
AcDbEntity
  8
0
  6
Continuous
 62
     7
370
    15
100
AcDbLine
 10
-0.9354612163891431
 20
0.7174105514638996
 30
0.0
 11
-0.9308073710547972
 21
0.7181059720602434
 31
0.0
  0
LINE
  5
333B
330
32D9
100
AcDbEntity
  8
0
  6
Continuous
 62
     7
370
    15
100
AcDbLine
 10
-0.946498875296811
 20
0.7223585863484488
 30
0.0
 11
-0.946498875296811
 21
0.7230056525845186
 31
0.0
  0
LINE
  5
333C
330
32D9
100
AcDbEntity
  8
0
  6
Continuous
 62
     7
370
    15
100
AcDbLine
 10
-0.946498875296811
 20
0.7230056525845186
 30
0.0
 11
-0.9429275620216657
 21
0.7235393112321731
 31
0.0
  0
LINE
  5
333D
330
32D9
100
AcDbEntity
  8
0
  6
Continuous
 62
     8
370
    15
100
AcDbLine
 10
-0.975561382897581
 20
0.7360340183217886
 30
0.0
 11
-0.9578626770563971
 21
0.7386787225795075
 31
0.0
  0
SPLINE
  5
333E
330
32D9
100
AcDbEntity
  8
0
  6
Continuous
 62
     7
370
    15
100
AcDbSpline
210
0.0
220
0.0
230
1.0
 70
     8
 71
     3
 72
     9
 73
     5
 74
     0
 42
0.0000000001
 43
0.0000000001
 40
0.0
 40
0.0
 40
0.0
 40
0.0
 40
0.5425107617797656
 40
1.0
 40
1.0
 40
1.0
 40
1.0
 10
-0.9766071477350948
 20
0.736459980907739
 30
0.0
 10
-0.9764378385350767
 20
0.7365757669887075
 30
0.0
 10
-0.9761257540347259
 20
0.7367891933188702
 30
0.0
 10
-0.975738532556619
 20
0.7362710591349071
 30
0.0
 10
-0.9755613828975668
 20
0.7360340183217886
 30
0.0
  0
LINE
  5
333F
330
32D9
100
AcDbEntity
  8
0
  6
Continuous
 62
     7
370
    15
100
AcDbLine
 10
-0.9766439149567673
 20
0.7358722563730993
 30
0.0
 11
-0.9831391053272682
 21
0.7349016849775581
 31
0.0
  0
LWPOLYLINE
  5
3340
330
32D9
100
AcDbEntity
  8
0
  6
Continuous
 62
     7
370
    15
100
AcDbPolyline
 90
        9
 70
   128
 43
0.0
 10
-0.934425176556175
 20
0.7512364978777129
 10
-0.9418945219155432
 20
0.7498511864814077
 10
-0.948176118275569
 20
0.7481153364629308
 10
-0.9530285731818395
 20
0.7460956575331324
 10
-0.9562654440168216
 20
0.7438697809897122
 10
-0.9577623066779921
 20
0.7415232310068234
 10
-0.9574616582332708
 20
0.739146193606743
 10
-0.9553750218463221
 20
0.7368300023813248
 10
-0.9515826147828363
 20
0.7346636815356505
  0
LINE
  5
3341
330
32D9
100
AcDbEntity
  8
0
  6
Continuous
 62
     7
370
    15
100
AcDbLine
 10
-0.9578626849790055
 20
0.7395822588334227
 30
0.0
 11
-0.9766565738307946
 21
0.7367739022048881
 31
0.0
  0
LINE
  5
3342
330
32D9
100
AcDbEntity
  8
0
  6
Continuous
 62
     7
370
    15
100
AcDbLine
 10
-0.9578626750235343
 20
0.7407297535208102
 30
0.0
 11
-0.9578626750235343
 21
0.7334853033590889
 31
0.0
  0
LINE
  5
3343
330
32D9
100
AcDbEntity
  8
0
  6
Continuous
 62
     7
370
    15
100
AcDbLine
 10
-0.5903939094497872
 20
0.5627211158419243
 30
0.0
 11
-0.7132064182092109
 21
0.6177764573564844
 31
0.0
  0
LINE
  5
3344
330
32D9
100
AcDbEntity
  8
0
  6
Continuous
 62
     7
370
    15
100
AcDbLine
 10
-0.5968890998203023
 20
0.5617505444463973
 30
0.0
 11
-0.7197016085797117
 21
0.6168058859609574
 31
0.0
  0
LINE
  5
3345
330
32D9
100
AcDbEntity
  8
0
  6
Continuous
 62
     7
370
    15
100
AcDbLine
 10
-0.5815826115544525
 20
0.5615527675755772
 30
0.0
 11
-0.7197580195070117
 21
0.6234951083891076
 31
0.0
  0
LINE
  5
3346
330
32D9
100
AcDbEntity
  8
0
  6
Continuous
 62
     7
370
    15
100
AcDbLine
 10
-0.5815826115544525
 20
0.5615527675755772
 30
0.0
 11
-0.5815826115544525
 21
0.5687972177373127
 31
0.0
  0
ARC
  5
3347
330
32D9
100
AcDbEntity
  8
0
  6
Continuous
 62
     7
370
    15
100
AcDbCircle
 10
-0.5945995919076097
 20
0.5528271594745604
 30
0.0
 40
0.0206030225556902
100
AcDbArc
 50
354.7617595980062
 51
50.81698488087518
  0
LWPOLYLINE
  5
3348
330
32D9
100
AcDbEntity
  8
0
  6
Continuous
 62
     7
370
    15
100
AcDbPolyline
 90
       38
 70
   128
 43
0.0
 10
-0.7043830939615248
 20
0.3636044907994034
 10
-0.7048325854356392
 20
0.3740086012231103
 10
-0.7061681716734967
 20
0.3845164728679862
 10
-0.7083513897861025
 20
0.3948257574797935
 10
-0.7113194671652821
 20
0.4046398549847226
 10
-0.7149870081308763
 20
0.4136764613043625
 10
-0.7192484872352339
 20
0.4216755569465107
 10
-0.723981329227712
 20
0.4284070919185581
 10
-0.7290493556814397
 20
0.4336774183362025
 10
-0.7343067999469924
 20
0.4373348444662782
 10
-0.7396023954384816
 20
0.4392742299712609
 10
-0.7447837939158575
 20
0.4394397457421633
 10
-0.7497019471009452
 20
0.4378266256220656
 10
-0.754215378294731
 20
0.4344812396424658
 10
-0.7581942156641901
 20
0.4294999270790783
 10
-0.7615240238646379
 20
0.4230258974266974
 10
-0.7641089756697142
 20
0.4152454813388716
 10
-0.7658747486046878
 20
0.4063824166125017
 10
-0.7667705049234997
 20
0.3966917232468887
 10
-0.7667705049234997
 20
0.3864522099587617
 10
-0.7658747486046878
 20
0.3759584034486636
 10
-0.7641089756697142
 20
0.3655121900193876
 10
-0.7615240238646379
 20
0.3554141695463784
 10
-0.7581942156641901
 20
0.3459547155344609
 10
-0.754215378294731
 20
0.3374060749778636
 10
-0.7497019471009452
 20
0.3300140572945907
 10
-0.7447837939158575
 20
0.3239914416603824
 10
-0.7396023954384816
 20
0.3195114426449521
 10
-0.7343067999469924
 20
0.3167029271217387
 10
-0.7290493556814397
 20
0.3156466576770214
 10
-0.723981329227712
 20
0.3163731158839482
 10
-0.7192484872352339
 20
0.3188613008119034
 10
-0.7149870081308763
 20
0.3230397296476752
 10
-0.7113194671652821
 20
0.3287881086943969
 10
-0.7083513897861025
 20
0.3359411008216426
 10
-0.7061681716734967
 20
0.3442928947895467
 10
-0.7048325854356392
 20
0.3536033125726021
 10
-0.7043830939615248
 20
0.3636044907994034
  0
LWPOLYLINE
  5
3349
330
32D9
100
AcDbEntity
  8
0
  6
Continuous
 62
     7
370
    15
100
AcDbPolyline
 90
       20
 70
   128
 43
0.0
 10
-0.7182773266998055
 20
0.3170129872539178
 10
-0.713445229187272
 20
0.3186134722809442
 10
-0.7089318163265972
 20
0.3219588664790649
 10
-0.7049529789571381
 20
0.3269401790424524
 10
-0.7016231707566903
 20
0.3334142086948333
 10
-0.699038218951614
 20
0.3411946247826592
 10
-0.6972724460166404
 20
0.350057689509029
 10
-0.6963766713647033
 20
0.359748374656121
 10
-0.6963766713647033
 20
0.369987887944248
 10
-0.6972724460166404
 20
0.3804817026728671
 10
-0.699038218951614
 20
0.390927916102143
 10
-0.7016231707566903
 20
0.4010259365751523
 10
-0.7049529789571381
 20
0.4104853905870698
 10
-0.7089318163265972
 20
0.4190340311436671
 10
-0.713445229187272
 20
0.4264260406084191
 10
-0.7183633823723455
 20
0.4324486562426273
 10
-0.7235447991828466
 20
0.4369286634765786
 10
-0.7288403946743359
 20
0.439737178999792
 10
-0.7340978206067632
 20
0.4407934402259884
 10
-0.7367508799584073
 20
0.4406403331120288
  0
LWPOLYLINE
  5
334A
330
32D9
100
AcDbEntity
  8
0
  6
Continuous
 62
     7
370
    15
100
AcDbPolyline
 90
       38
 70
   128
 43
0.0
 10
-0.8293830832843269
 20
0.4196404530234475
 10
-0.8298325930915382
 20
0.4300445716656612
 10
-0.8311681609962846
 20
0.4405524350920303
 10
-0.8333513974420156
 20
0.4508617279223444
 10
-0.8363194748211952
 20
0.4606758254272734
 10
-0.8399869974536642
 20
0.4697124235283923
 10
-0.844248494891147
 20
0.4777115273890758
 10
-0.8489813185504999
 20
0.4844430541426022
 10
-0.8540493633373529
 20
0.4897133887787533
 10
-0.8593068076029055
 20
0.493370814908829
 10
-0.8646024030943948
 20
0.4953102004138117
 10
-0.8697837832386596
 20
0.4954757079662074
 10
-0.8747019730899694
 20
0.4938626042831374
 10
-0.8792153676175189
 20
0.4905172018665099
 10
-0.883194204986978
 20
0.4855358893031081
 10
-0.8865240131874259
 20
0.4790618596507415
 10
-0.8891089833256273
 20
0.4712814517814224
 10
-0.8908747562606009
 20
0.4624183870550525
 10
-0.8917705125794128
 20
0.4527276936894396
 10
-0.8917705125794128
 20
0.4424881804013126
 10
-0.8908747562606009
 20
0.4319943738912145
 10
-0.8891089833256273
 20
0.4215481604619385
 10
-0.8865240131874259
 20
0.4114501317704225
 10
-0.883194204986978
 20
0.401990677758505
 10
-0.8792153676175189
 20
0.3934420372019076
 10
-0.8747019730899694
 20
0.3860500359556624
 10
-0.8697837832386596
 20
0.3800274038844264
 10
-0.8646024030943948
 20
0.3755474130875029
 10
-0.8593068076029055
 20
0.3727388975642896
 10
-0.8540493633373529
 20
0.3716826281195864
 10
-0.8489813185504999
 20
0.3724090781079923
 10
-0.844248494891147
 20
0.3748972712544543
 10
-0.8399869974536642
 20
0.3790756918717193
 10
-0.8363194748211952
 20
0.3848240791369477
 10
-0.8333513974420156
 20
0.3919770712642077
 10
-0.8311681609962846
 20
0.4003288570135908
 10
-0.8298325930915382
 20
0.409639283015153
 10
-0.8293830832843269
 20
0.4196404530234475
  0
LWPOLYLINE
  5
334B
330
32D9
100
AcDbEntity
  8
0
  6
Continuous
 62
     7
370
    15
100
AcDbPolyline
 90
       20
 70
   128
 43
0.0
 10
-0.8432773343557045
 20
0.3730489576964686
 10
-0.8384452368431851
 20
0.374649442723495
 10
-0.8339318056493851
 20
0.377994828703109
 10
-0.829952968279926
 20
0.3829761412664965
 10
-0.8266231784126034
 20
0.3894501791373841
 10
-0.8240382082744019
 20
0.3972305870067032
 10
-0.8222724536725536
 20
0.4060936599515799
 10
-0.8213766790206165
 20
0.4157843450986718
 10
-0.8213766790206165
 20
0.426023858386813
 10
-0.8222724536725536
 20
0.4365176731154179
 10
-0.8240382082744019
 20
0.4469638783261872
 10
-0.8266231784126034
 20
0.4570619070177031
 10
-0.829952968279926
 20
0.4665213528110997
 10
-0.8339318056493851
 20
0.475069993367697
 10
-0.8384452368431851
 20
0.4824620110509841
 10
-0.8433633900282586
 20
0.4884846266851782
 10
-0.8485448068387455
 20
0.4929646339191294
 10
-0.853840402330249
 20
0.4957731494423428
 10
-0.8590978282626764
 20
0.4968294106685392
 10
-0.8617508876143062
 20
0.4966763035545938
  0
LINE
  5
334C
330
32D9
100
AcDbEntity
  8
0
  6
Continuous
 62
     7
370
    15
100
AcDbLine
 10
-0.8513963223188483
 20
0.3718357434520527
 30
0.0
 11
-0.8432773343557187
 21
0.3730489576964686
 31
0.0
  0
LINE
  5
334D
330
32D9
100
AcDbEntity
  8
0
  6
Continuous
 62
     7
370
    15
100
AcDbLine
 10
-0.7263963146629351
 20
0.3157997730094877
 30
0.0
 11
-0.7182773266998055
 21
0.3170129872539178
 31
0.0
  0
LINE
  5
334E
330
32D9
100
AcDbEntity
  8
0
  6
Continuous
 62
     7
370
    15
100
AcDbLine
 10
-0.8617508876143205
 20
0.4966763035545938
 30
0.0
 11
-0.8698698755774501
 21
0.4954630893101637
 31
0.0
  0
LINE
  5
334F
330
32D9
100
AcDbEntity
  8
0
  6
Continuous
 62
     7
370
    15
100
AcDbLine
 10
-0.7367508799584073
 20
0.4406403331120288
 30
0.0
 11
-0.7448698679215369
 21
0.4394271188675987
 31
0.0
  0
ARC
  5
3350
330
32D9
100
AcDbEntity
  8
0
  6
Continuous
 62
     7
370
    15
100
AcDbCircle
 10
-0.5811901269945708
 20
0.5883767133457667
 30
0.0
 40
0.0272565459066601
100
AcDbArc
 50
250.264874428278
 51
270.6202932739958
  0
LINE
  5
3351
330
32D9
100
AcDbEntity
  8
0
  6
Continuous
 62
     7
370
    15
100
AcDbLine
 10
-0.5903939094497872
 20
0.5627211158419243
 30
0.0
 11
-0.5968890998203023
 21
0.5617505444463973
 31
0.0
  0
ARC
  5
3352
330
32D9
100
AcDbEntity
  8
0
  6
Continuous
 62
     7
370
    15
100
AcDbCircle
 10
-0.5811048400006343
 20
0.6080095916670701
 30
0.0
 40
0.0488778304328139
100
AcDbArc
 50
251.1596123378801
 51
272.0358682350007
  0
ARC
  5
3353
330
32D9
100
AcDbEntity
  8
0
  6
Continuous
 62
     7
370
    15
100
AcDbCircle
 10
-0.5880911060820324
 20
0.5535677366161594
 30
0.0
 40
0.0103015154437748
100
AcDbArc
 50
354.7617719322512
 51
50.81697254663148
  0
LINE
  5
3354
330
32D9
100
AcDbEntity
  8
0
  6
Continuous
 62
     7
370
    15
100
AcDbLine
 10
-0.5778326127914255
 20
0.5526272389580385
 30
0.0
 11
-0.5740826140283986
 21
0.5509461605022495
 31
0.0
  0
LWPOLYLINE
  5
3355
330
32D9
100
AcDbEntity
  8
0
  6
Continuous
 62
     7
370
    15
100
AcDbPolyline
 90
        9
 70
   128
 43
0.0
 10
-0.7288314077079861
 20
0.6549661103099993
 10
-0.7285311845095209
 20
0.6489426899307631
 10
-0.7276420281144738
 20
0.6428815718288235
 10
-0.7261981297945113
 20
0.6370156847883664
 10
-0.724254947242315
 20
0.6315704201373791
 10
-0.7218871879282034
 20
0.6267550776670277
 10
-0.7191858391344255
 20
0.6227546633594443
 10
-0.7162547029951583
 20
0.6197229527242314
 10
-0.7132064182091967
 20
0.6177764573564986
  0
LINE
  5
3356
330
32D9
100
AcDbEntity
  8
0
  6
Continuous
 62
     7
370
    15
100
AcDbLine
 10
-0.7132064182092109
 20
0.6177764573564844
 30
0.0
 11
-0.7197016085797117
 21
0.6168058859609574
 31
0.0
  0
LINE
  5
3357
330
32D9
100
AcDbEntity
  8
0
  6
Continuous
 62
     7
370
    15
100
AcDbLine
 10
-0.5815826115544525
 20
0.5687972177373127
 30
0.0
 11
-0.7248360925113531
 21
0.6330159964016389
 31
0.0
  0
LINE
  5
3358
330
32D9
100
AcDbEntity
  8
0
  6
Continuous
 62
     7
370
    15
100
AcDbLine
 10
-0.7522689102893026
 20
0.7258432496848571
 30
0.0
 11
-0.8147689049506965
 21
0.7538612307969004
 31
0.0
  0
LINE
  5
3359
330
32D9
100
AcDbEntity
  8
0
  6
Continuous
 62
     7
370
    15
100
AcDbLine
 10
-0.7587641006598034
 20
0.72487267828933
 30
0.0
 11
-0.8212640953211973
 21
0.752890659401345
 31
0.0
  0
LWPOLYLINE
  5
335A
330
32D9
100
AcDbEntity
  8
0
  6
Continuous
 62
     7
370
    15
100
AcDbPolyline
 90
        9
 70
   128
 43
0.0
 10
-0.8212640953211973
 20
0.752890659401345
 10
-0.8258365225001256
 20
0.7540703715729223
 10
-0.8302332450421374
 20
0.7534648618244262
 10
-0.8342852865659438
 20
0.751097193186979
 10
-0.837836907203993
 20
0.7470584836504913
 10
-0.8407516718657177
 20
0.7415038972861084
 10
-0.842917528512217
 20
0.7346469165616441
 10
-0.8442512631048089
 20
0.7267509977139639
 10
-0.8447015979024996
 20
0.7181196262789911
  0
LINE
  5
335B
330
32D9
100
AcDbEntity
  8
0
  6
Continuous
 62
     7
370
    15
100
AcDbLine
 10
-0.8538313970307882
 20
0.6808169107492859
 30
0.0
 11
-0.8525712515881025
 21
0.6803503202359878
 31
0.0
  0
LINE
  5
335C
330
32D9
100
AcDbEntity
  8
0
  6
Continuous
 62
     7
370
    15
100
AcDbLine
 10
-0.860326587401289
 20
0.6798463393537446
 30
0.0
 11
-0.8538313970307882
 21
0.6808169107492859
 31
0.0
  0
LINE
  5
335D
330
32D9
100
AcDbEntity
  8
0
  6
Continuous
 62
     7
370
    15
100
AcDbLine
 10
-0.8447015979024996
 20
0.7181196262789911
 30
0.0
 11
-0.8447015979024996
 21
0.7030270099697447
 31
0.0
  0
LWPOLYLINE
  5
335E
330
32D9
100
AcDbEntity
  8
0
  6
Continuous
 62
     7
370
    15
100
AcDbPolyline
 90
        9
 70
   128
 43
0.0
 10
-0.8447015979024996
 20
0.7030270099697447
 10
-0.8450018394340759
 20
0.6972727705649504
 10
-0.8458909774960119
 20
0.6920088400592306
 10
-0.8473348941490996
 20
0.6874375250552589
 10
-0.8492780583681707
 20
0.6837344620000039
 10
-0.8516458176822823
 20
0.6810419944546738
 10
-0.8543471664760602
 20
0.6794635432173664
 10
-0.8572783026153274
 20
0.6790598173502076
 10
-0.860326587401289
 20
0.6798463393537446
  0
LWPOLYLINE
  5
335F
330
32D9
100
AcDbEntity
  8
0
  6
Continuous
 62
     7
370
    15
100
AcDbPolyline
 90
        9
 70
   128
 43
0.0
 10
-0.7197016085797117
 20
0.6168058859609574
 10
-0.7227498933656591
 20
0.618752381328676
 10
-0.7256810295049263
 20
0.6217840919639031
 10
-0.7283823782987185
 20
0.6257845062714864
 10
-0.7307501376128159
 20
0.6305998487418379
 10
-0.7326933201650121
 20
0.6360451133928251
 10
-0.7341372184849746
 20
0.6419110004332822
 10
-0.7350263748800359
 20
0.6479721185352219
 10
-0.7353265980785011
 20
0.6539955389144581
  0
ARC
  5
3360
330
32D9
100
AcDbEntity
  8
0
  6
Continuous
 62
     7
370
    15
100
AcDbCircle
 10
-0.7691305421736701
 20
0.6964811142697301
 30
0.0
 40
0.0212638559437095
100
AcDbArc
 50
176.8692508324182
 51
221.6841676765434
  0
ARC
  5
3361
330
32D9
100
AcDbEntity
  8
0
  6
Continuous
 62
     7
370
    15
100
AcDbCircle
 10
-0.7758142393220027
 20
0.6986798247260282
 30
0.0
 40
0.0145853618530846
100
AcDbArc
 50
150.6074974344805
 51
184.0786360060628
  0
LWPOLYLINE
  5
3362
330
32D9
100
AcDbEntity
  8
0
  6
Continuous
 62
     7
370
    15
100
AcDbPolyline
 90
       18
 70
   128
 43
0.0
 10
-0.7968578522641963
 20
0.6966718618610202
 10
-0.7963957109362241
 20
0.7012407254808295
 10
-0.7950716928980626
 20
0.7047781374501483
 10
-0.7930646194172795
 20
0.7068064454294643
 10
-0.7906455640290773
 20
0.707051703576795
 10
-0.7881412229594389
 20
0.7054806605994344
 10
-0.7858898239677928
 20
0.7023057152048438
 10
-0.7841954218750118
 20
0.697955431461125
 10
-0.7832868873704797
 20
0.6930175495925824
 10
-0.7832868873704797
 20
0.688158779872083
 10
-0.7841954218750118
 20
0.6840353969221838
 10
-0.7858898239677928
 20
0.6812043433685915
 10
-0.7881412229594389
 20
0.6800478762542355
 10
-0.7906455640290773
 20
0.6807222348875968
 10
-0.7930646194172795
 20
0.6831363587618143
 10
-0.7950716928980626
 20
0.6869641595948224
 10
-0.7963957109362241
 20
0.6916886536618847
 10
-0.7968578522641963
 20
0.6966718618610202
  0
LINE
  5
3363
330
32D9
100
AcDbEntity
  8
0
  6
Continuous
 62
     7
370
    15
100
AcDbLine
 10
-0.7288314077080003
 20
0.6549661103099993
 30
0.0
 11
-0.7288314077080003
 21
0.6700587266192457
 31
0.0
  0
LWPOLYLINE
  5
3364
330
32D9
100
AcDbEntity
  8
0
  6
Continuous
 62
     7
370
    15
100
AcDbPolyline
 90
        9
 70
   128
 43
0.0
 10
-0.7522689102892884
 20
0.7258432496848713
 10
-0.7476964831103601
 20
0.7229234357995438
 10
-0.7432997605683483
 20
0.718375932461953
 10
-0.7392477373776672
 20
0.7123753110005709
 10
-0.7356960984064927
 20
0.7051522972950437
 10
-0.732781333744768
 20
0.6969844044278091
 10
-0.7306154770982687
 20
0.688185569757863
 10
-0.7292817608388021
 20
0.6790938654065997
 10
-0.7288314077079861
 20
0.6700587266192457
  0
LINE
  5
3365
330
32D9
100
AcDbEntity
  8
0
  6
Continuous
 62
     7
370
    15
100
AcDbLine
 10
-0.7587641006598034
 20
0.72487267828933
 30
0.0
 11
-0.7522689102893026
 21
0.7258432496848571
 31
0.0
  0
LINE
  5
3366
330
32D9
100
AcDbEntity
  8
0
  6
Continuous
 62
     7
370
    15
100
AcDbLine
 10
-0.7288314077080003
 20
0.6700587266192457
 30
0.0
 11
-0.7353265980785011
 21
0.6690881552237045
 31
0.0
  0
LINE
  5
3367
330
32D9
100
AcDbEntity
  8
0
  6
Continuous
 62
     7
370
    15
100
AcDbLine
 10
-0.7353265980785011
 20
0.6539955389144581
 30
0.0
 11
-0.7288314077080003
 21
0.6549661103099993
 31
0.0
  0
LINE
  5
3368
330
32D9
100
AcDbEntity
  8
0
  6
Continuous
 62
     7
370
    15
100
AcDbLine
 10
-0.7353265980785011
 20
0.6539955389144581
 30
0.0
 11
-0.7353265980785011
 21
0.6690881552237045
 31
0.0
  0
LWPOLYLINE
  5
3369
330
32D9
100
AcDbEntity
  8
0
  6
Continuous
 62
     7
370
    15
100
AcDbPolyline
 90
        9
 70
   128
 43
0.0
 10
-0.7353265980785011
 20
0.6690881552237045
 10
-0.7357769512093171
 20
0.6781232940110585
 10
-0.7371106674687696
 20
0.6872149983623217
 10
-0.739276524115283
 20
0.6960138330322679
 10
-0.7421912887770077
 20
0.7041817258995025
 10
-0.745742927748168
 20
0.7114047396050296
 10
-0.7497949509388491
 20
0.7174053610663976
 10
-0.754191673480861
 20
0.7219528644040026
 10
-0.7587641006598034
 20
0.72487267828933
  0
LINE
  5
336A
330
32D9
100
AcDbEntity
  8
0
  6
Continuous
 62
     7
370
    15
100
AcDbLine
 10
-0.8216964965892401
 20
0.7549437026547281
 30
0.0
 11
-0.8281916869597409
 21
0.7539731312591869
 31
0.0
  0
LWPOLYLINE
  5
336B
330
32D9
100
AcDbEntity
  8
0
  6
Continuous
 62
     7
370
    15
100
AcDbPolyline
 90
        3
 70
   128
 43
0.0
 10
-0.8216964965892259
 20
0.7549437026547281
 10
-0.8193413321296247
 20
0.7550409429684635
 10
-0.8147689049506823
 20
0.7538612307969004
  0
LINE
  5
336C
330
32D9
100
AcDbEntity
  8
0
  6
Continuous
 62
     7
370
    15
100
AcDbLine
 10
-0.8147689049506965
 20
0.7538612307969004
 30
0.0
 11
-0.8212640953211973
 21
0.752890659401345
 31
0.0
  0
LWPOLYLINE
  5
336D
330
32D9
100
AcDbEntity
  8
0
  6
Continuous
 62
     7
370
    15
100
AcDbPolyline
 90
       17
 70
   128
 43
0.0
 10
-0.7397425249703673
 20
0.7687843622758237
 10
-0.7362956197353583
 20
0.7695667406167673
 10
-0.7342678861070056
 20
0.7706309530060196
 10
-0.7339680386014323
 20
0.7718149983833343
 10
-0.7354417139188741
 20
0.7729386137809655
 10
-0.7384645666571572
 20
0.7738307367656603
 10
-0.7425763834598769
 20
0.7743555504745956
 10
-0.747151210997302
 20
0.7744331690474411
 10
-0.7514925159001252
 20
0.7740517391087281
 10
-0.7549394419244209
 20
0.7732693795773003
 10
-0.7569671388865374
 20
0.772205150751006
 10
-0.7572669863921107
 20
0.7710211053737055
 10
-0.7557933110746547
 20
0.7698974899760743
 10
-0.7527704583363857
 20
0.7690053669913653
 10
-0.7486586415336661
 20
0.76848055328243
 10
-0.7440838506624772
 20
0.7684029511466264
 10
-0.7397425249703673
 20
0.7687843622758237
  0
LINE
  5
336E
330
32D9
100
AcDbEntity
  8
0
  6
Continuous
 62
     7
370
    15
100
AcDbLine
 10
1.987458205183116
 20
0.0803802088483963
 30
0.0
 11
1.987458205183116
 21
0.9337152720792971
 31
0.0
  0
ARC
  5
336F
330
32D9
100
AcDbEntity
  8
0
  6
Continuous
 62
     7
370
    15
100
AcDbCircle
 10
1.935929039833084
 20
0.0794015840334197
 30
0.0
 40
0.0515384573711595
100
AcDbArc
 50
282.2487601943486
 51
1.088011641567183
  0
LINE
  5
3370
330
32D9
100
AcDbEntity
  8
0
  6
Continuous
 62
     7
370
    15
100
AcDbLine
 10
1.973569188041963
 20
0.0340176976156101
 30
0.0
 11
1.955308664453013
 21
0.0312890413558193
 31
0.0
  0
LINE
  5
3371
330
32D9
100
AcDbEntity
  8
0
  6
Continuous
 62
     7
370
    15
100
AcDbLine
 10
1.973569188041963
 20
0.0267732540945502
 30
0.0
 11
1.909699651672781
 21
0.0172292774733194
 31
0.0
  0
LINE
  5
3372
330
32D9
100
AcDbEntity
  8
0
  6
Continuous
 62
     7
370
    15
100
AcDbLine
 10
1.973569188041963
 20
0.0352251052380552
 30
0.0
 11
1.959358175554825
 21
0.0331015643662909
 31
0.0
  0
LINE
  5
3373
330
32D9
100
AcDbEntity
  8
0
  6
Continuous
 62
     7
370
    15
100
AcDbLine
 10
1.909699651672781
 20
0.0172292774733194
 30
0.0
 11
1.899236916289183
 21
0.02191959343169
 31
0.0
  0
LINE
  5
3374
330
32D9
100
AcDbEntity
  8
0
  6
Continuous
 62
     7
370
    15
100
AcDbLine
 10
1.909699651672781
 20
0.0172292774733194
 30
0.0
 11
1.909699651672781
 21
0.0234830336336813
 31
0.0
  0
LINE
  5
3375
330
32D9
100
AcDbEntity
  8
0
  6
Continuous
 62
     7
370
    15
100
AcDbLine
 10
2.037764542798797
 20
0.0083479336600334
 30
0.0
 11
1.97973106945642
 21
0.0343636280417741
 31
0.0
  0
LINE
  5
3376
330
32D9
100
AcDbEntity
  8
0
  6
Continuous
 62
     8
370
    15
100
AcDbLine
 10
1.971549157627521
 20
0.0349232524769292
 30
0.0
 11
1.973569188041963
 21
0.0340176976156101
 31
0.0
  0
LINE
  5
3377
330
32D9
100
AcDbEntity
  8
0
  6
Continuous
 62
     8
370
    15
100
AcDbLine
 10
1.973569188041963
 20
0.0352251052380552
 30
0.0
 11
1.973569188041963
 21
0.0442043999217532
 31
0.0
  0
LINE
  5
3378
330
32D9
100
AcDbEntity
  8
0
  6
Continuous
 62
     7
370
    15
100
AcDbLine
 10
1.974848797416399
 20
0.0360887837509978
 30
0.0
 11
1.973569188041963
 21
0.0340176976156101
 31
0.0
  0
SPLINE
  5
3379
330
32D9
100
AcDbEntity
  8
0
  6
Continuous
 62
     7
370
    15
100
AcDbSpline
210
0.0
220
0.0
230
1.0
 70
     8
 71
     3
 72
    10
 73
     6
 74
     0
 42
0.0000000001
 43
0.0000000001
 40
0.0
 40
0.0
 40
0.0
 40
0.0
 40
0.2587560556046805
 40
0.6293796196882737
 40
1.0
 40
1.0
 40
1.0
 40
1.0
 10
1.981692481020957
 20
0.0420528705232499
 30
0.0
 10
1.981483758279196
 20
0.0401430633882711
 30
0.0
 10
1.980976076093682
 20
0.0354977858681593
 30
0.0
 10
1.977821534204935
 20
0.0298054965560084
 30
0.0
 10
1.974986632704172
 20
0.0277839986874824
 30
0.0
 10
1.973569188041977
 20
0.0267732540945502
 30
0.0
  0
LINE
  5
337A
330
32D9
100
AcDbEntity
  8
0
  6
Continuous
 62
     7
370
    15
100
AcDbLine
 10
1.973569188041963
 20
0.0340176976156101
 30
0.0
 11
1.973569188041963
 21
0.0267732540945502
 31
0.0
  0
SPLINE
  5
337B
330
32D9
100
AcDbEntity
  8
0
  6
Continuous
 62
     7
370
    15
100
AcDbSpline
210
0.0
220
0.0
230
1.0
 70
     8
 71
     3
 72
    10
 73
     6
 74
     0
 42
0.0000000001
 43
0.0000000001
 40
0.0
 40
0.0
 40
0.0
 40
0.0
 40
0.3421458726047554
 40
0.6844116007402476
 40
1.0
 40
1.0
 40
1.0
 40
1.0
 10
1.973569188041977
 20
0.0352251052380552
 30
0.0
 10
1.975501568863734
 20
0.0364167554503752
 30
0.0
 10
1.979367007430624
 20
0.0388004733164564
 30
0.0
 10
1.982925736377168
 20
0.0428499578000441
 30
0.0
 10
1.983298649327537
 20
0.0456259307548521
 30
0.0
 10
1.98347754461173
 20
0.0469576315449132
 30
0.0
  0
LINE
  5
337C
330
32D9
100
AcDbEntity
  8
0
  6
Continuous
 62
     7
370
    15
100
AcDbLine
 10
1.983569219979926
 20
0.0469540387734924
 30
0.0
 11
1.983569219979926
 21
0.0604604662368189
 31
0.0
  0
LINE
  5
337D
330
32D9
100
AcDbEntity
  8
0
  6
Continuous
 62
     7
370
    15
100
AcDbLine
 10
2.037764542798797
 20
-0.0007076207413093
 30
0.0
 11
2.037764542798797
 21
0.0083479336600334
 31
0.0
  0
LINE
  5
337E
330
32D9
100
AcDbEntity
  8
0
  6
Continuous
 62
     7
370
    15
100
AcDbLine
 10
1.609958204428664
 20
1.117432793112712
 30
0.0
 11
1.979958207657048
 21
0.9515663293143745
 31
0.0
  0
LWPOLYLINE
  5
337F
330
32D9
100
AcDbEntity
  8
0
  6
Continuous
 62
     7
370
    15
100
AcDbPolyline
 90
       17
 70
   128
 43
0.0
 10
1.389868096398799
 20
1.087010470340516
 10
1.393314922249061
 20
1.087792836819048
 10
1.395342782892996
 20
1.088857068188161
 10
1.395642551013821
 20
1.090041101703064
 10
1.394168828065531
 20
1.091164709983246
 10
1.391146022958096
 20
1.092056840085405
 10
1.387034285540124
 20
1.092581665656737
 10
1.382459330987103
 20
1.092659265249722
 10
1.378118105469027
 20
1.09227784717342
 10
1.37467124295253
 20
1.091495497131916
 10
1.372643418974831
 20
1.090431249325789
 10
1.372343650853991
 20
1.089247215810885
 10
1.373817373802296
 20
1.08812360753069
 10
1.376840178909731
 20
1.087231477428545
 10
1.380951916327688
 20
1.086706651857213
 10
1.385526834214473
 20
1.086629068701242
 10
1.389868096398799
 20
1.087010470340516
  0
ARC
  5
3380
330
32D9
100
AcDbEntity
  8
0
  6
Continuous
 62
     7
370
    15
100
AcDbCircle
 10
1.568712601102461
 20
0.9865697514793794
 30
0.0
 40
0.1372090939379214
100
AcDbArc
 50
72.50611526093795
 51
99.55962313738702
  0
ARC
  5
3381
330
32D9
100
AcDbEntity
  8
0
  6
Continuous
 62
     7
370
    15
100
AcDbCircle
 10
1.93662434049871
 20
0.2744893991505393
 30
0.0
 40
0.0097659667197051
100
AcDbArc
 50
273.6962069216781
 51
2.324350935032291
  0
LWPOLYLINE
  5
3382
330
32D9
100
AcDbEntity
  8
0
  6
Continuous
 62
     7
370
    15
100
AcDbPolyline
 90
        3
 70
   128
 43
0.0
 10
1.946382272256613
 20
0.2748854720964147
 10
1.945776661914322
 20
0.2781910822669431
 10
1.94432995432227
 20
0.2805278384584966
  0
LWPOLYLINE
  5
3383
330
32D9
100
AcDbEntity
  8
0
  6
Continuous
 62
     7
370
    15
100
AcDbPolyline
 90
        7
 70
   128
 43
0.0
 10
1.937464243943239
 20
0.264160062998485
 10
1.939130942540501
 20
0.2633615562969851
 10
1.942175760310163
 20
0.2631410174265341
 10
1.94522057807984
 20
0.2642715259401598
 10
1.947801788938974
 20
0.2665809725216803
 10
1.949526660677349
 20
0.2697178093856678
 10
1.95013227101964
 20
0.2732043936406256
  0
ARC
  5
3384
330
32D9
100
AcDbEntity
  8
0
  6
Continuous
 62
     7
370
    15
100
AcDbCircle
 10
1.942843221809269
 20
0.2737469685621505
 30
0.0
 40
0.0073092151382052
100
AcDbArc
 50
355.7429253750073
 51
73.61092347804627
  0
ARC
  5
3385
330
32D9
100
AcDbEntity
  8
0
  6
Continuous
 62
     7
370
    15
100
AcDbCircle
 10
1.941041001395845
 20
0.2725094539798363
 30
0.0
 40
0.0122629835122684
100
AcDbArc
 50
266.4792262946162
 51
2.833874815406933
  0
ARC
  5
3386
330
32D9
100
AcDbEntity
  8
0
  6
Continuous
 62
     7
370
    15
100
AcDbCircle
 10
1.943306011946802
 20
0.2735512604840835
 30
0.0
 40
0.0099924719212087
100
AcDbArc
 50
357.5019764474089
 51
50.30206517015694
  0
LWPOLYLINE
  5
3387
330
32D9
100
AcDbEntity
  8
0
  6
Continuous
 62
     7
370
    15
100
AcDbPolyline
 90
       17
 70
   128
 43
0.0
 10
1.9570389870414
 20
0.2714346608924814
 10
1.956264445961835
 20
0.2756622520895462
 10
1.954058693192422
 20
0.2790147277108872
 10
1.950757303927076
 20
0.2809816896846655
 10
1.946863259909775
 20
0.2812637470723587
 10
1.942969215892489
 20
0.2798179215668455
 10
1.939667826627129
 20
0.2768643113799385
 10
1.93746207385773
 20
0.2728526278150269
 10
1.936687532778165
 20
0.2683935584399109
 10
1.93746207385773
 20
0.2641659849512763
 10
1.939667826627129
 20
0.2608135093299353
 10
1.942969215892489
 20
0.2588465473561712
 10
1.946863259909775
 20
0.2585644899684638
 10
1.950757303927076
 20
0.2600103154739912
 10
1.954058693192422
 20
0.262963925660884
 10
1.956264445961835
 20
0.2669756092257955
 10
1.9570389870414
 20
0.2714346608924814
  0
LWPOLYLINE
  5
3388
330
32D9
100
AcDbEntity
  8
0
  6
Continuous
 62
     7
370
    15
100
AcDbPolyline
 90
        9
 70
   128
 43
0.0
 10
1.8190145431508
 20
1.110068195742528
 10
1.823586970329728
 20
1.1071483818572
 10
1.827983692871754
 20
1.102600878519609
 10
1.832035716062435
 20
1.096600257058227
 10
1.835587355033595
 20
1.0893772433527
 10
1.83850211969532
 20
1.08120935048548
 10
1.840667976341819
 20
1.072410515815519
 10
1.842001692601286
 20
1.06331881146427
 10
1.842452045732102
 20
1.054283672676902
  0
LWPOLYLINE
  5
3389
330
32D9
100
AcDbEntity
  8
0
  6
Continuous
 62
     7
370
    15
100
AcDbPolyline
 90
        9
 70
   128
 43
0.0
 10
1.835956976423332
 20
1.053313119371523
 10
1.835506623292516
 20
1.062348258158891
 10
1.834172907033064
 20
1.07143996251014
 10
1.83200705038655
 20
1.080238797180101
 10
1.829092285724826
 20
1.088406690047321
 10
1.825540646753665
 20
1.095629703752848
 10
1.821488623562984
 20
1.10163032521423
 10
1.817091901020972
 20
1.106177828551821
 10
1.81251947384203
 20
1.109097642437149
  0
LINE
  5
338A
330
32D9
100
AcDbEntity
  8
0
  6
Continuous
 62
     7
370
    15
100
AcDbLine
 10
1.842452045732088
 20
1.054283672676902
 30
0.0
 11
1.842452045732088
 21
1.039191056367656
 31
0.0
  0
LINE
  5
338B
330
32D9
100
AcDbEntity
  8
0
  6
Continuous
 62
     7
370
    15
100
AcDbLine
 10
1.842452045732088
 20
1.054283672676902
 30
0.0
 11
1.835956976423318
 21
1.053313119371523
 31
0.0
  0
ARC
  5
338C
330
32D9
100
AcDbEntity
  8
0
  6
Continuous
 62
     7
370
    15
100
AcDbCircle
 10
1.898768797050948
 20
1.0381650082318
 30
0.0
 40
0.0563260974494726
100
AcDbArc
 50
178.9562301988589
 51
210.2735850411483
  0
LINE
  5
338D
330
32D9
100
AcDbEntity
  8
0
  6
Continuous
 62
     7
370
    15
100
AcDbLine
 10
1.835956976423318
 20
1.038220503062262
 30
0.0
 11
1.842452045732088
 21
1.039191056367656
 31
0.0
  0
ARC
  5
338E
330
32D9
100
AcDbEntity
  8
0
  6
Continuous
 62
     7
370
    15
100
AcDbCircle
 10
1.896750046657729
 20
1.03799070674529
 30
0.0
 40
0.0607935045450784
100
AcDbArc
 50
179.7834243878011
 51
203.3587702803643
  0
LINE
  5
338F
330
32D9
100
AcDbEntity
  8
0
  6
Continuous
 62
     7
370
    15
100
AcDbLine
 10
1.835956976423318
 20
1.053313119371523
 30
0.0
 11
1.835956976423318
 21
1.038220503062262
 31
0.0
  0
LWPOLYLINE
  5
3390
330
32D9
100
AcDbEntity
  8
0
  6
Continuous
 62
     7
370
    15
100
AcDbPolyline
 90
        3
 70
   128
 43
0.0
 10
1.749586956850862
 20
1.139168648712384
 10
1.751942121310463
 20
1.13926588902612
 10
1.756514548489406
 20
1.138086176854557
  0
LINE
  5
3391
330
32D9
100
AcDbEntity
  8
0
  6
Continuous
 62
     7
370
    15
100
AcDbLine
 10
1.756514548489391
 20
1.138086176854557
 30
0.0
 11
1.750019479180622
 21
1.137115623549178
 31
0.0
  0
LINE
  5
3392
330
32D9
100
AcDbEntity
  8
0
  6
Continuous
 62
     7
370
    15
100
AcDbLine
 10
1.750019479180622
 20
1.137115623549178
 30
0.0
 11
1.812519473842016
 21
1.109097642437149
 31
0.0
  0
LWPOLYLINE
  5
3393
330
32D9
100
AcDbEntity
  8
0
  6
Continuous
 62
     7
370
    15
100
AcDbPolyline
 90
        9
 70
   128
 43
0.0
 10
1.750019479180636
 20
1.137115623549178
 10
1.745447052001708
 20
1.138295335720741
 10
1.741050329459682
 20
1.137689825972259
 10
1.736998287935875
 20
1.135322157334812
 10
1.73344666729784
 20
1.13128344779831
 10
1.730531902636116
 20
1.125728861433927
 10
1.728366045989616
 20
1.118871880709477
 10
1.727032311397024
 20
1.110975961861782
 10
1.726581976599334
 20
1.10234459042681
  0
LINE
  5
3394
330
32D9
100
AcDbEntity
  8
0
  6
Continuous
 62
     7
370
    15
100
AcDbLine
 10
1.72658197659932
 20
1.087251974117563
 30
0.0
 11
1.72658197659932
 21
1.10234459042681
 31
0.0
  0
ARC
  5
3395
330
32D9
100
AcDbEntity
  8
0
  6
Continuous
 62
     7
370
    15
100
AcDbCircle
 10
1.694291502928891
 20
1.084791736196393
 30
0.0
 40
0.0323840618281567
100
AcDbArc
 50
327.4862510049671
 51
4.356995039146944
  0
LINE
  5
3396
330
32D9
100
AcDbEntity
  8
0
  6
Continuous
 62
     7
370
    15
100
AcDbLine
 10
1.749586956850848
 20
1.139168648712384
 30
0.0
 11
1.743091887542092
 21
1.138198095407005
 31
0.0
  0
LINE
  5
3397
330
32D9
100
AcDbEntity
  8
0
  6
Continuous
 62
     7
370
    15
100
AcDbLine
 10
1.756514548489391
 20
1.138086176854557
 30
0.0
 11
1.819014543150785
 21
1.110068195742528
 31
0.0
  0
ARC
  5
3398
330
32D9
100
AcDbEntity
  8
0
  6
Continuous
 62
     7
370
    15
100
AcDbCircle
 10
1.802152911266418
 20
1.080706060327401
 30
0.0
 40
0.0212638559437067
100
AcDbArc
 50
176.8692508324157
 51
221.6841676765469
  0
ARC
  5
3399
330
32D9
100
AcDbEntity
  8
0
  6
Continuous
 62
     7
370
    15
100
AcDbCircle
 10
1.795469214118028
 20
1.082904770783699
 30
0.0
 40
0.0145853618530396
100
AcDbArc
 50
150.6074974344254
 51
184.0786360061142
  0
LWPOLYLINE
  5
339A
330
32D9
100
AcDbEntity
  8
0
  6
Continuous
 62
     7
370
    15
100
AcDbPolyline
 90
       18
 70
   128
 43
0.0
 10
1.788113230785029
 20
1.074760883789494
 10
1.787651089457057
 20
1.079744091988644
 10
1.786327071418895
 20
1.084468586055692
 10
1.784319997938126
 20
1.0882963868887
 10
1.781900942549924
 20
1.090710510762917
 10
1.779396601480272
 20
1.091384798562543
 10
1.777145184155514
 20
1.090228410500444
 10
1.775450800395844
 20
1.087397277894581
 10
1.774542247558187
 20
1.083273973996938
 10
1.774542247558187
 20
1.078415204276438
 10
1.775450800395844
 20
1.073477243355654
 10
1.777145184155514
 20
1.069127038664177
 10
1.779396601480272
 20
1.06595201421733
 10
1.781900942549924
 20
1.064381042073719
 10
1.784319997938126
 20
1.06462630022105
 10
1.786327071418895
 20
1.066654608200366
 10
1.787651089457057
 20
1.070192020169685
 10
1.788113230785029
 20
1.074760883789494
  0
LINE
  5
339B
330
32D9
100
AcDbEntity
  8
0
  6
Continuous
 62
     7
370
    15
100
AcDbLine
 10
1.812519473842016
 20
1.109097642437149
 30
0.0
 11
1.819014543150785
 21
1.110068195742528
 31
0.0
  0
ARC
  5
339C
330
32D9
100
AcDbEntity
  8
0
  6
Continuous
 62
     7
370
    15
100
AcDbCircle
 10
1.966941227303891
 20
0.9355962710516223
 30
0.0
 40
0.0206030225556902
100
AcDbArc
 50
354.7617595980062
 51
50.81698488087518
  0
LINE
  5
339D
330
32D9
100
AcDbEntity
  8
0
  6
Continuous
 62
     7
370
    15
100
AcDbLine
 10
-0.5442828432563403
 20
-0.4159130425721571
 30
0.0
 11
-1.313578984191607
 21
-0.5308683843715017
 31
0.0
  0
LINE
  5
339E
330
32D9
100
AcDbEntity
  8
0
  6
Continuous
 62
     7
370
    15
100
AcDbLine
 10
-1.081179468394878
 20
-0.1587896418988919
 30
0.0
 11
-1.850475609330146
 21
-0.2737449836982364
 31
0.0
  0
LINE
  5
339F
330
32D9
100
AcDbEntity
  8
0
  6
Continuous
 62
     7
370
    15
100
AcDbLine
 10
-1.709746509747958
 20
-0.2527159405473043
 30
0.0
 11
-1.709746509747958
 21
0.0146326675018997
 31
0.0
  0
LINE
  5
33A0
330
32D9
100
AcDbEntity
  8
0
  6
Continuous
 62
     7
370
    15
100
AcDbLine
 10
-1.340772005267979
 20
-0.4345370874265058
 30
0.0
 11
-1.172808349089464
 21
-0.5098331345991625
 31
0.0
  0
LINE
  5
33A1
330
32D9
100
AcDbEntity
  8
0
  6
Continuous
 62
     7
370
    15
100
AcDbLine
 10
-1.709808534869992
 20
-0.2526881354457657
 30
0.0
 11
-1.507907759128585
 21
-0.3431977771164867
 31
0.0
  0
LINE
  5
33A2
330
32D9
100
AcDbEntity
  8
0
  6
Continuous
 62
     7
370
    15
100
AcDbLine
 10
-1.081179468394878
 20
0.7227563993498905
 30
0.0
 11
-1.850475609330146
 21
0.607801057550546
 31
0.0
  0
LINE
  5
33A3
330
32D9
100
AcDbEntity
  8
0
  6
Continuous
 62
     7
370
    15
100
AcDbLine
 10
-1.709746509747958
 20
0.3037674943915363
 30
0.0
 11
-1.709746509747958
 21
0.6288301007014923
 31
0.0
  0
LINE
  5
33A4
330
32D9
100
AcDbEntity
  8
0
  6
Continuous
 62
     7
370
    15
100
AcDbLine
 10
-0.5442828432563403
 20
-0.4159130425721571
 30
0.0
 11
0.0862171308916544
 21
-0.6985584485840093
 31
0.0
  0
LINE
  5
33A5
330
32D9
100
AcDbEntity
  8
0
  6
Continuous
 62
     7
370
    15
100
AcDbLine
 10
1.116356985446628
 20
-0.4640511589066421
 30
0.0
 11
-0.0485862477905528
 21
-0.6381277471380713
 31
0.0
  0
LINE
  5
33A6
330
32D9
100
AcDbEntity
  8
0
  6
Continuous
 62
     7
370
    15
100
AcDbLine
 10
2.128240403538185
 20
-0.0448201423399155
 30
0.0
 11
2.749332246746675
 21
-0.3232479986321124
 31
0.0
  0
LINE
  5
33A7
330
32D9
100
AcDbEntity
  8
0
  6
Continuous
 62
     7
370
    15
100
AcDbLine
 10
2.576656709796566
 20
-0.2458396730956593
 30
0.0
 11
1.606826048943304
 21
-0.3907607368752508
 31
0.0
  0
LINE
  5
33A8
330
32D9
100
AcDbEntity
  8
0
  6
Continuous
 62
     7
370
    15
100
AcDbLine
 10
-0.891770512579427
 20
0.45200711597127
 30
0.0
 11
-0.9858185894352402
 21
0.49416771542802
 31
0.0
  0
LINE
  5
33A9
330
32D9
100
AcDbEntity
  8
0
  6
Continuous
 62
     7
370
    15
100
AcDbLine
 10
-0.9858185894352402
 20
0.49416771542802
 30
0.0
 11
-1.592304378063644
 21
0.4035410017108916
 31
0.0
  0
LINE
  5
33AA
330
32D9
100
AcDbEntity
  8
0
  6
Continuous
 62
     7
370
    15
100
AcDbLine
 10
-1.45157527848147
 20
0.2620387417068599
 30
0.0
 11
-1.45157527848147
 21
0.424570044861838
 31
0.0
  0
LINE
  5
33AB
330
32D9
100
AcDbEntity
  8
0
  6
Continuous
 62
     7
370
    15
100
AcDbLine
 10
-1.45157527848147
 20
-0.2141376082851423
 30
0.0
 11
-1.45157527848147
 21
-0.0270960851827766
 31
0.0
  0
LINE
  5
33AC
330
32D9
100
AcDbEntity
  8
0
  6
Continuous
 62
     7
370
    15
100
AcDbLine
 10
-0.853840402330249
 20
1.410984517873288
 30
0.0
 11
-0.853840402330249
 21
0.495773149442158
 31
0.0
  0
LINE
  5
33AD
330
32D9
100
AcDbEntity
  8
0
  6
Continuous
 62
     7
370
    15
100
AcDbLine
 10
-0.7288404130074611
 20
1.354948555649244
 30
0.0
 11
-0.7288404130074611
 21
0.4397371872181282
 31
0.0
  0
LINE
  5
33AE
330
32D9
100
AcDbEntity
  8
0
  6
Continuous
 62
     7
370
    15
100
AcDbLine
 10
-1.040014094969208
 20
1.128982955286929
 30
0.0
 11
-1.040014094969208
 21
-0.1527037184599749
 31
0.0
  0
LINE
  5
33AF
330
32D9
100
AcDbEntity
  8
0
  6
Continuous
 62
     7
370
    15
100
AcDbLine
 10
-0.853840402330249
 20
0.9323032009506988
 30
0.0
 11
-0.7698585742409989
 21
0.8946551773643705
 31
0.0
  0
LINE
  5
33B0
330
32D9
100
AcDbEntity
  8
0
  6
Continuous
 62
     7
370
    15
100
AcDbLine
 10
-1.123995923058458
 20
1.053410607728537
 30
0.0
 11
-1.040014094969208
 21
1.015762584142208
 31
0.0
  0
LINE
  5
33B1
330
32D9
100
AcDbEntity
  8
0
  6
Continuous
 62
     7
370
    15
100
AcDbLine
 10
-0.9378222304195134
 20
1.335412170314896
 30
0.0
 11
-0.853840402330249
 21
1.297764146728553
 31
0.0
  0
LINE
  5
33B2
330
32D9
100
AcDbEntity
  8
0
  6
Continuous
 62
     7
370
    15
100
AcDbLine
 10
-0.7288404130074611
 20
1.241728184504523
 30
0.0
 11
-0.6448585849182109
 21
1.204080160918195
 31
0.0
  0
LWPOLYLINE
  5
33B3
330
32D9
100
AcDbEntity
  8
Dimensions
 62
     7
380
     2
100
AcDbPolyline
 90
        2
 70
   128
 10
-1.709746509747958
 20
0.6296059418484959
 40
0.0
 41
0.032
 10
-1.709746509747958
 20
0.5654852739105963
 40
0.032
 41
0.032
  0
LWPOLYLINE
  5
33B4
330
32D9
100
AcDbEntity
  8
Dimensions
 62
     7
380
     2
100
AcDbPolyline
 90
        2
 70
   128
 10
-1.451575278481456
 20
0.4253458860088415
 40
0.0
 41
0.032
 10
-1.451575278481456
 20
0.3612252180709561
 40
0.032
 41
0.032
  0
LWPOLYLINE
  5
33B5
330
32D9
100
AcDbEntity
  8
Dimensions
 62
     7
380
     2
100
AcDbPolyline
 90
        2
 70
   128
 10
-1.709746509747958
 20
-0.2527159405473043
 40
0.0
 41
0.032
 10
-1.709746509747958
 20
-0.1885952726094189
 40
0.032
 41
0.032
  0
LWPOLYLINE
  5
33B6
330
32D9
100
AcDbEntity
  8
Dimensions
 62
     7
380
     2
100
AcDbPolyline
 90
        2
 70
   128
 10
-1.451575278481456
 20
-0.2141376082851423
 40
0.0
 41
0.032
 10
-1.451575278481456
 20
-0.1500169403472569
 40
0.032
 41
0.032
  0
LWPOLYLINE
  5
33B7
330
32D9
100
AcDbEntity
  8
Dimensions
 62
     7
380
     2
100
AcDbPolyline
 90
        2
 70
   128
 10
-1.709818646373207
 20
-0.2526807381845231
 40
0.0
 41
0.032016
 10
-1.651750818799115
 20
-0.2799516007588778
 40
0.032016
 41
0.032016
  0
LWPOLYLINE
  5
33B8
330
32D9
100
AcDbEntity
  8
Dimensions
 62
     7
380
     2
100
AcDbPolyline
 90
        2
 70
   128
 10
-1.172828168546317
 20
-0.5098737473534385
 40
0.0
 41
0.032016
 10
-1.231421482998712
 20
-0.4837510360430457
 40
0.032016
 41
0.032016
  0
LWPOLYLINE
  5
33B9
330
32D9
100
AcDbEntity
  8
Dimensions
 62
     7
380
     2
100
AcDbPolyline
 90
        2
 70
   128
 10
-0.0485862477905528
 20
-0.6381277471380713
 40
0.0
 41
0.032
 10
0.0133455319291613
 20
-0.6215081044658178
 40
0.032
 41
0.032
  0
LWPOLYLINE
  5
33BA
330
32D9
100
AcDbEntity
  8
Dimensions
 62
     7
380
     2
100
AcDbPolyline
 90
        2
 70
   128
 10
2.57665670979658
 20
-0.2458396730956593
 40
0.0
 41
0.032
 10
2.514724930076866
 20
-0.2624593157679129
 40
0.032
 41
0.032
  0
LWPOLYLINE
  5
33BB
330
32D9
100
AcDbEntity
  8
Dimensions
 62
     7
380
     2
100
AcDbPolyline
 90
        2
 70
   128
 10
-1.040014094969194
 20
1.015762584142208
 40
0.0
 41
0.032016
 10
-1.098607409421589
 20
1.041885295452601
 40
0.032016
 41
0.032016
  0
LWPOLYLINE
  5
33BC
330
32D9
100
AcDbEntity
  8
Dimensions
 62
     7
380
     2
100
AcDbPolyline
 90
        2
 70
   128
 10
-0.853840402330249
 20
1.297764146728567
 40
0.0
 41
0.032016
 10
-0.9124337167826297
 20
1.32388685803896
 40
0.032016
 41
0.032016
  0
LWPOLYLINE
  5
33BD
330
32D9
100
AcDbEntity
  8
Dimensions
 62
     7
380
     2
100
AcDbPolyline
 90
        2
 70
   128
 10
-0.853974564077518
 20
0.9323662084150043
 40
0.0
 41
0.032016
 10
-0.7959067365034401
 20
0.9050953458406354
 40
0.032016
 41
0.032016
  0
LWPOLYLINE
  5
33BE
330
32D9
100
AcDbEntity
  8
Dimensions
 62
     7
380
     2
100
AcDbPolyline
 90
        2
 70
   128
 10
-0.7289745747547301
 20
1.241791191968815
 40
0.0
 41
0.032016
 10
-0.6709067471806521
 20
1.21452032939446
 40
0.032016
 41
0.032016
  0
TEXT
  5
33BF
330
32D9
100
AcDbEntity
  8
Dimensions
 62
     7
 48
0.5
100
AcDbText
 10
-1.769686436030127
 20
0.1355571978238288
 30
0.0
 40
0.056
  1
7
100
AcDbText
  0
TEXT
  5
33C0
330
32D9
100
AcDbEntity
  8
Dimensions
 62
     7
 48
0.5
100
AcDbText
 10
-1.703758177407948
 20
0.1033450619130178
 30
0.0
 40
0.044
  1
2
100
AcDbText
  0
LINE
  5
33C1
330
32D9
100
AcDbEntity
  8
Dimensions
 62
     7
 48
0.5
100
AcDbLine
 10
-1.705432064413884
 20
0.1600092107090916
 30
0.0
 11
-1.661432064413887
 21
0.1600092107090916
 31
0.0
  0
TEXT
  5
33C2
330
32D9
100
AcDbEntity
  8
Dimensions
 62
     7
 48
0.5
100
AcDbText
 10
-1.704185070707055
 20
0.1716471367071222
 30
0.0
 40
0.044
  1
1
100
AcDbText
  0
TEXT
  5
33C3
330
32D9
100
AcDbEntity
  8
Dimensions
 62
     7
 48
0.5
100
AcDbText
 10
-1.511515204763625
 20
0.0938284451391667
 30
0.0
 40
0.056
  1
5
100
AcDbText
  0
TEXT
  5
33C4
330
32D9
100
AcDbEntity
  8
Dimensions
 62
     7
 48
0.5
100
AcDbText
 10
-1.44558694614146
 20
0.0616163092283557
 30
0.0
 40
0.044
  1
8
100
AcDbText
  0
LINE
  5
33C5
330
32D9
100
AcDbEntity
  8
Dimensions
 62
     7
 48
0.5
100
AcDbLine
 10
-1.447260833147382
 20
0.1182804580244294
 30
0.0
 11
-1.403260833147385
 21
0.1182804580244294
 31
0.0
  0
TEXT
  5
33C6
330
32D9
100
AcDbEntity
  8
Dimensions
 62
     7
 48
0.5
100
AcDbText
 10
-1.446013839440567
 20
0.12991838402246
 30
0.0
 40
0.044
  1
5
100
AcDbText
  0
TEXT
  5
33C7
330
32D9
100
AcDbEntity
  8
Dimensions
 62
     7
 48
0.5
100
AcDbText
 10
-1.458958573037278
 20
-0.4147633913428166
 30
0.0
 40
0.056
  1
8
100
AcDbText
  0
TEXT
  5
33C8
330
32D9
100
AcDbEntity
  8
Dimensions
 62
     7
 48
0.5
100
AcDbText
 10
1.23523512500229
 20
-0.4532786958461941
 30
0.0
 40
0.056
  1
23
100
AcDbText
  0
TEXT
  5
33C9
330
32D9
100
AcDbEntity
  8
Dimensions
 62
     7
 48
0.5
100
AcDbText
 10
1.377977984765763
 20
-0.4854908317570051
 30
0.0
 40
0.044
  1
8
100
AcDbText
  0
LINE
  5
33CA
330
32D9
100
AcDbEntity
  8
Dimensions
 62
     7
 48
0.5
100
AcDbLine
 10
1.376304097759827
 20
-0.4288266829609313
 30
0.0
 11
1.420304097759824
 21
-0.4288266829609313
 31
0.0
  0
TEXT
  5
33CB
330
32D9
100
AcDbEntity
  8
Dimensions
 62
     7
 48
0.5
100
AcDbText
 10
1.377551091466656
 20
-0.4171887569629007
 30
0.0
 40
0.044
  1
7
100
AcDbText
  0
TEXT
  5
33CC
330
32D9
100
AcDbEntity
  8
Dimensions
 62
     7
 48
0.5
100
AcDbText
 10
-0.9742406332437241
 20
0.9360952191228335
 30
0.0
 40
0.056
  1
3
100
AcDbText
  0
TEXT
  5
33CD
330
32D9
100
AcDbEntity
  8
Dimensions
 62
     7
 48
0.5
100
AcDbText
 10
-1.022712449577454
 20
1.326533270335545
 30
0.0
 40
0.056
  1
2
100
AcDbText
  0
LWPOLYLINE
  5
33CE
330
32D9
100
AcDbEntity
  8
0
  6
Continuous
 62
     7
370
    15
100
AcDbPolyline
 90
       38
 70
   128
 43
0.0
 10
-0.8293830832843269
 20
0.2250606566534401
 10
-0.8298325930915382
 20
0.2354647752956538
 10
-0.8311681609962846
 20
0.2459726387220229
 10
-0.8333513974420156
 20
0.256281931552337
 10
-0.8363194748211952
 20
0.266096029057266
 10
-0.8399869974536642
 20
0.2751326271583849
 10
-0.844248494891147
 20
0.2831317310190684
 10
-0.8489813185504999
 20
0.2898632577725948
 10
-0.8540493633373529
 20
0.2951335924087459
 10
-0.8593068076029055
 20
0.2987910185388358
 10
-0.8646024030943948
 20
0.3007304040438186
 10
-0.8697837832386596
 20
0.3008959115962
 10
-0.8747019730899694
 20
0.29928280791313
 10
-0.8792153676175189
 20
0.2959374054965025
 10
-0.883194204986978
 20
0.290956092933115
 10
-0.8865240131874259
 20
0.2844820632807341
 10
-0.8891089833256273
 20
0.276701655411415
 10
-0.8908747562606009
 20
0.2678385906850593
 10
-0.8917705125794128
 20
0.2581478973194322
 10
-0.8917705125794128
 20
0.2479083840313052
 10
-0.8908747562606009
 20
0.2374145775212071
 10
-0.8891089833256273
 20
0.2269683640919311
 10
-0.8865240131874259
 20
0.2168703354004151
 10
-0.883194204986978
 20
0.2074108813884976
 10
-0.8792153676175189
 20
0.1988622408319003
 10
-0.8747019730899694
 20
0.1914702395856551
 10
-0.8697837832386596
 20
0.1854476075144333
 10
-0.8646024030943948
 20
0.1809676167174956
 10
-0.8593068076029055
 20
0.1781591011942822
 10
-0.8540493633373529
 20
0.1771028317495791
 10
-0.8489813185504999
 20
0.1778292817379992
 10
-0.844248494891147
 20
0.1803174748844469
 10
-0.8399869974536642
 20
0.184495895501712
 10
-0.8363194748211952
 20
0.1902442827669546
 10
-0.8333513974420156
 20
0.1973972748942003
 10
-0.8311681609962846
 20
0.2057490606435834
 10
-0.8298325930915382
 20
0.2150594866451456
 10
-0.8293830832843269
 20
0.2250606566534401
  0
LWPOLYLINE
  5
33CF
330
32D9
100
AcDbEntity
  8
0
  6
Continuous
 62
     7
370
    15
100
AcDbPolyline
 90
       20
 70
   128
 43
0.0
 10
-0.8432773343557045
 20
0.1784691613264755
 10
-0.8384452368431851
 20
0.1800696463534876
 10
-0.8339318056493851
 20
0.1834150323331016
 10
-0.829952968279926
 20
0.1883963448964891
 10
-0.8266231784126034
 20
0.1948703827673768
 10
-0.8240382082744019
 20
0.2026507906366959
 10
-0.8222724536725536
 20
0.2115138635815725
 10
-0.8213766790206165
 20
0.2212045487286645
 10
-0.8213766790206165
 20
0.2314440620168057
 10
-0.8222724536725536
 20
0.2419378767454106
 10
-0.8240382082744019
 20
0.2523840819561798
 10
-0.8266231784126034
 20
0.2624821106476958
 10
-0.829952968279926
 20
0.2719415564410923
 10
-0.8339318056493851
 20
0.2804901969976896
 10
-0.8384452368431851
 20
0.2878822146809767
 10
-0.8433633900282586
 20
0.2939048303151708
 10
-0.8485448068387455
 20
0.2983848375491362
 10
-0.853840402330249
 20
0.3011933530723496
 10
-0.8590978282626764
 20
0.3022496142985318
 10
-0.8617508876143062
 20
0.3020965071845865
  0
LINE
  5
33D0
330
32D9
100
AcDbEntity
  8
0
  6
Continuous
 62
     7
370
    15
100
AcDbLine
 10
-0.8513963223188483
 20
0.1772559470820454
 30
0.0
 11
-0.8432773343557187
 21
0.1784691613264613
 31
0.0
  0
LINE
  5
33D1
330
32D9
100
AcDbEntity
  8
0
  6
Continuous
 62
     7
370
    15
100
AcDbLine
 10
-0.8617508876143205
 20
0.3020965071845865
 30
0.0
 11
-0.8698698755774501
 21
0.3008832929401564
 31
0.0
  0
LINE
  5
33D2
330
32D9
100
AcDbEntity
  8
0
  6
Continuous
 62
     7
370
    15
100
AcDbLine
 10
-0.891770512579427
 20
0.2574273196012626
 30
0.0
 11
-0.9858185894352402
 21
0.2995879190580126
 31
0.0
  0
LINE
  5
33D3
330
32D9
100
AcDbEntity
  8
0
  6
Continuous
 62
     7
370
    15
100
AcDbLine
 10
-0.9858185894352402
 20
0.2995879190580126
 30
0.0
 11
-1.334133146797142
 21
0.2475395376030605
 31
0.0
  0
LINE
  5
33D4
330
32D9
100
AcDbEntity
  8
0
  6
Continuous
 62
     7
370
    15
100
AcDbLine
 10
-1.193404047214968
 20
0.1358471630953204
 30
0.0
 11
-1.193404047214968
 21
0.2685685807540068
 31
0.0
  0
LWPOLYLINE
  5
33D5
330
32D9
100
AcDbEntity
  8
Dimensions
 62
     7
380
     2
100
AcDbPolyline
 90
        2
 70
   128
 10
-1.193404047214968
 20
0.2693444219009962
 40
0.0
 41
0.032
 10
-1.193404047214968
 20
0.2052237539631108
 40
0.032
 41
0.032
  0
LINE
  5
33D6
330
32D9
100
AcDbEntity
  8
0
  6
Continuous
 62
     7
370
    15
100
AcDbLine
 10
-1.193404047214968
 20
-0.1755592760229803
 30
0.0
 11
-1.193404047214968
 21
-0.0359926970263445
 31
0.0
  0
LWPOLYLINE
  5
33D7
330
32D9
100
AcDbEntity
  8
Dimensions
 62
     7
380
     2
100
AcDbPolyline
 90
        2
 70
   128
 10
-1.193404047214968
 20
-0.1755592760229803
 40
0.0
 41
0.032
 10
-1.193404047214968
 20
-0.1114386080850949
 40
0.032
 41
0.032
  0
TEXT
  5
33D8
330
32D9
100
AcDbEntity
  8
Dimensions
 62
     7
 48
0.5
100
AcDbText
 10
-1.251922330301553
 20
0.022063991394802
 30
0.0
 40
0.056
  1
3
100
AcDbText
  0
TEXT
  5
33D9
330
32D9
100
AcDbEntity
  8
Dimensions
 62
     7
 48
0.5
100
AcDbText
 10
-1.185994071679374
 20
-0.010148144516009
 30
0.0
 40
0.044
  1
8
100
AcDbText
  0
LINE
  5
33DA
330
32D9
100
AcDbEntity
  8
Dimensions
 62
     7
 48
0.5
100
AcDbLine
 10
-1.18766795868531
 20
0.0465160042800648
 30
0.0
 11
-1.143667958685313
 21
0.0465160042800648
 31
0.0
  0
TEXT
  5
33DB
330
32D9
100
AcDbEntity
  8
Dimensions
 62
     7
 48
0.5
100
AcDbText
 10
-1.186420964978481
 20
0.0581539302780954
 30
0.0
 40
0.044
  1
5
100
AcDbText
  0
ENDBLK
  5
33DD
330
32D9
100
AcDbEntity
  8
0
100
AcDbBlockEnd
  0
ENDSEC
  0
SECTION
  2
ENTITIES
  0
LINE
  5
8B6
330
1E
100
AcDbEntity
  8
0
100
AcDbLine
 10
0.4248902672093145
 20
6.412583847293512
 30
0.0
 11
1.968802672129968
 21
6.412583847293512
 31
0.0
  0
LINE
  5
8B7
330
1E
100
AcDbEntity
  8
0
100
AcDbLine
 10
0.4248902672093145
 20
6.537583847293512
 30
0.0
 11
1.968802672129968
 21
6.537583847293512
 31
0.0
  0
LINE
  5
8B8
330
1E
100
AcDbEntity
  8
0
100
AcDbLine
 10
0.4248902672093145
 20
6.662583847293512
 30
0.0
 11
1.968802672129968
 21
6.662583847293512
 31
0.0
  0
LINE
  5
8B9
330
1E
100
AcDbEntity
  8
0
100
AcDbLine
 10
0.4248902672093145
 20
6.787583847293512
 30
0.0
 11
1.968802672129968
 21
6.787583847293512
 31
0.0
  0
LINE
  5
8BA
330
1E
100
AcDbEntity
  8
0
100
AcDbLine
 10
0.4248902672093145
 20
6.912583847293512
 30
0.0
 11
1.968802672129968
 21
6.912583847293512
 31
0.0
  0
LINE
  5
8BB
330
1E
100
AcDbEntity
  8
0
100
AcDbLine
 10
0.4248902672093145
 20
7.037583847293512
 30
0.0
 11
1.968802672129968
 21
7.037583847293512
 31
0.0
  0
LINE
  5
8BC
330
1E
100
AcDbEntity
  8
0
100
AcDbLine
 10
0.4248902672093145
 20
7.162583847293513
 30
0.0
 11
1.968802672129968
 21
7.162583847293513
 31
0.0
  0
MTEXT
  5
8BD
330
1E
100
AcDbEntity
  8
0
100
AcDbMText
 10
1.264706781115344
 20
5.922595876706809
 30
0.0
 40
0.125
 41
2.179
 71
     5
 72
     5
  1
{\fTahoma|b0|i0|c0|p34;\LMECHANICAL OUTLINE}
 73
     1
 44
1.0
  0
MTEXT
  5
8BE
330
1E
100
AcDbEntity
  8
0
100
AcDbMText
 10
1.244189998043325
 20
8.060029185836306
 30
0.0
 40
0.125
 41
2.179
 71
     5
 72
     5
  1
{\fTahoma|b0|i0|c0|p34;\LELECTRICAL ONE-LINE}
 73
     1
 44
1.0
  0
LINE
  5
8BF
330
1E
100
AcDbEntity
  8
0
100
AcDbLine
 10
1.174206959999815
 20
7.162583847293512
 30
0.0
 11
1.174206959999808
 21
6.412583847293512
 31
0.0
  0
MTEXT
  5
8C0
330
1E
100
AcDbEntity
  8
0
100
AcDbMText
 10
1.123840809936283
 20
6.597972710396789
 30
0.0
 40
0.0625
 41
0.7314
 71
     6
 72
     5
  1
SERVICE REQ.
 73
     1
 44
1.0
  0
MTEXT
  5
8C1
330
1E
100
AcDbEntity
  8
0
100
AcDbMText
 10
1.123840809936283
 20
6.722972710396789
 30
0.0
 40
0.0625
 41
0.7314
 71
     6
 72
     5
  1
AMPS/PHASE
 73
     1
 44
1.0
  0
MTEXT
  5
8C2
330
1E
100
AcDbEntity
  8
0
100
AcDbMText
 10
1.123840809936283
 20
6.843752183696325
 30
0.0
 40
0.0625
 41
0.7314
 71
     6
 72
     5
  1
# OF PHASES
 73
     1
 44
1.0
  0
MTEXT
  5
8C4
330
1E
100
AcDbEntity
  8
0
100
AcDbMText
 10
1.123840809936283
 20
6.472972710396789
 30
0.0
 40
0.0625
 41
0.7314
 71
     6
 72
     5
  1
WIRING
 73
     1
 44
1.0
  0
MTEXT
  5
8C5
330
1E
100
AcDbEntity
  8
0
100
AcDbMText
 10
1.123840809936283
 20
6.972972710396789
 30
0.0
 40
0.0625
 41
0.7314
 71
     6
 72
     5
  1
Hz
 73
     1
 44
1.0
  0
TEXT
  5
8C6
330
1E
100
AcDbEntity
  8
0
100
AcDbText
 10
1.214717311562883
 20
6.441722710396789
 30
0.0
 40
0.0625
  1
2W+G
100
AcDbText
  0
TEXT
  5
8C7
330
1E
100
AcDbEntity
  8
0
100
AcDbText
 10
1.214717311562883
 20
6.569192047703837
 30
0.0
 40
0.0625
  1
5A
100
AcDbText
  0
TEXT
  5
8C8
330
1E
100
AcDbEntity
  8
0
100
AcDbText
 10
1.205788740134313
 20
6.695943237097254
 30
0.0
 40
0.0625
  1
1.1 MAX.
100
AcDbText
  0
TEXT
  5
8C9
330
1E
100
AcDbEntity
  8
0
100
AcDbText
 10
1.205788740134313
 20
6.816722710396789
 30
0.0
 40
0.0625
  1
1
100
AcDbText
  0
TEXT
  5
8CA
330
1E
100
AcDbEntity
  8
0
100
AcDbText
 10
1.211741121086693
 20
6.941722710396789
 30
0.0
 40
0.0625
  1
60
100
AcDbText
  0
MTEXT
  5
8CB
330
1E
100
AcDbEntity
  8
0
100
AcDbMText
 10
1.177487577139985
 20
7.266464235412464
 30
0.0
 40
0.09
 41
1.060999999999999
 71
     5
 72
     5
  1
{\fArial|b0|i1|c0|p34;AC INPUT}
 73
     1
 44
1.0
  0
LWPOLYLINE
  5
8CC
330
1E
100
AcDbEntity
  8
0
 48
0.5
100
AcDbPolyline
 90
        4
 70
     1
 43
0.0
 10
1.933969788922866
 20
7.484858952372334
 10
0.4312909981974692
 20
7.484858952372334
 10
0.4312909981974692
 20
7.830878080186523
 10
1.933969788922866
 20
7.830878080186523
  0
LWPOLYLINE
  5
8CD
330
1E
100
AcDbEntity
  8
0
 48
0.5
100
AcDbPolyline
 90
        4
 70
     1
 43
0.0
 10
1.965219788922866
 20
7.453608952372334
 10
0.4000409981974692
 20
7.453608952372334
 10
0.4000409981974692
 20
7.862128080186523
 10
1.965219788922866
 20
7.862128080186523
  0
MTEXT
  5
8CE
330
1E
100
AcDbEntity
  8
0
100
AcDbMText
 10
1.123840809936283
 20
7.097972710396789
 30
0.0
 40
0.0625
 41
0.7314
 71
     6
 72
     5
  1
VOLTAGE
 73
     1
 44
1.0
  0
LINE
  5
8CF
330
1E
100
AcDbEntity
  8
Emergency
  6
DASHED
 48
0.5
100
AcDbLine
 10
1.169841263957793
 20
7.631921278898222
 30
0.0
 11
0.5351266361583676
 21
7.631921278898222
 31
0.0
  0
LINE
  5
8D1
330
1E
100
AcDbEntity
  8
Current
100
AcDbLine
 10
1.169145321939325
 20
7.73219707457077
 30
0.0
 11
0.5351266361583676
 21
7.73219707457077
 31
0.0
  0
TEXT
  5
8D2
330
1E
100
AcDbEntity
  8
0
100
AcDbText
 10
1.214717311562883
 20
7.066722710396789
 30
0.0
 40
0.0625
  1
277VAC
100
AcDbText
  0
TEXT
  5
8D4
330
1E
100
AcDbEntity
  8
0
100
AcDbText
 10
1.042019579061915
 20
7.601137655883359
 30
0.0
 40
0.06249894
  1
   EMERGENCY
100
AcDbText
  0
TEXT
  5
8D5
330
1E
100
AcDbEntity
  8
0
100
AcDbText
 10
1.229619579061915
 20
7.701550058552632
 30
0.0
 40
0.06249894
  1
NORMAL
100
AcDbText
  0
MTEXT
  5
908
330
1E
100
AcDbEntity
  8
0
 48
0.5
100
AcDbMText
 10
3.826033128198983
 20
8.176349961273587
 30
0.0
 40
0.125
 41
2.2435
 71
     1
 72
     5
  1
{\fTahoma|b0|i0|c0|p34;CENTRAL INVERTER SYSTEM}
 73
     1
 44
1.0
  0
MTEXT
  5
96C
330
1E
100
AcDbEntity
  8
0
100
AcDbMText
 10
9.7899605249826
 20
8.018124457007402
 30
0.0
 40
0.062496
 41
1.75
 71
     5
 72
     5
  1
{\fArial Narrow|b0|i0|c0|p34;TOTAL OUTPUT LOAD NOT TO EXCEED UNIT VA}
 73
     1
 44
1.0
  0
MTEXT
  5
96D
330
1E
100
AcDbEntity
  8
0
100
AcDbMText
 10
9.7899605249826
 20
8.130310166296805
 30
0.0
 40
0.09
 41
0.875
 71
     5
 72
     5
  1
{\fArial|b0|i1|c0|p34;AC OUTPUT}
 73
     1
 44
1.0
  0
LWPOLYLINE
  5
EC9
330
1E
100
AcDbEntity
  8
0
 48
0.5
100
AcDbPolyline
 90
        2
 70
     0
 43
0.0175
 10
0.2445727324352604
 20
6.111074699923325
 10
10.74457273243526
 20
6.111074699923325
  0
LWPOLYLINE
  5
ECA
330
1E
100
AcDbEntity
  8
0
380
     2
100
AcDbPolyline
 90
        6
 70
   128
 43
0.02
 10
5.500027612899616
 20
0.2500528344222945
 10
0.2500276128996164
 20
0.2500528344222945
 10
0.2500276128996164
 20
8.250052834422294
 10
10.75002761289961
 20
8.250052834422294
 10
10.75002761289961
 20
0.2500528344222945
 10
5.500027612899616
 20
0.2500528344222945
  0
LWPOLYLINE
  5
ECB
330
1E
100
AcDbEntity
  8
0
380
     2
100
AcDbPolyline
 90
        2
 70
   128
 43
0.02
 10
6.650027612899616
 20
0.2500528344222945
 10
6.650027612899616
 20
6.105052834422295
  0
LWPOLYLINE
  5
ECC
330
1E
100
AcDbEntity
  8
0
390
F
100
AcDbPolyline
 90
        6
 70
   128
 43
0.02
 10
9.815000015361052
 20
1.095000001228471
 10
8.890000015361053
 20
1.095000001228471
 10
8.890000015361053
 20
0.5800000012284715
 10
10.75000001536105
 20
0.5800000012284715
 10
10.75000001536105
 20
1.095000001228471
 10
9.82500001536105
 20
1.095000001228471
  0
MTEXT
  5
ECD
330
1E
100
AcDbEntity
  8
0
100
AcDbMText
 10
6.717431391726728
 20
1.204234231485302
 30
0.0
 40
0.1
 41
4.0
 71
     4
 72
     5
  1
{\fTahoma|b0|i0|c0|p34;MODEL #: 2-LVM-2-G}
 73
     1
 44
1.0
  0
LWPOLYLINE
  5
ECE
330
1E
100
AcDbEntity
  8
0
390
F
100
AcDbPolyline
 90
        2
 70
   128
 43
0.02
 10
8.900027612899616
 20
0.5800528344222946
 10
10.75502761289961
 20
0.5800528344222946
  0
LWPOLYLINE
  5
ECF
330
1E
100
AcDbEntity
  8
0
380
     2
100
AcDbPolyline
 90
        2
 70
   128
 43
0.02
 10
6.655027612899617
 20
1.095052834422294
 10
10.75002761289961
 20
1.095052834422294
  0
LWPOLYLINE
  5
ED0
330
1E
100
AcDbEntity
  8
0
380
     2
100
AcDbPolyline
 90
        2
 70
   128
 43
0.02
 10
6.655027612899617
 20
1.315052834422294
 10
10.75002761289961
 20
1.315052834422294
  0
LWPOLYLINE
  5
ED1
330
1E
100
AcDbEntity
  8
0
380
     2
100
AcDbPolyline
 90
        2
 70
   128
 43
0.02
 10
6.655027612899617
 20
1.535052834422294
 10
10.75002761289961
 20
1.535052834422294
  0
MTEXT
  5
ED2
330
1E
100
AcDbEntity
  8
0
100
AcDbMText
 10
7.721372208461074
 20
0.7613967632223711
 30
0.0
 40
0.1
 41
3.799999999999999
 71
     5
 72
     5
  1
{\fTahoma|b0|i0|c0|p34;SERIES LVM\P225W/VA ELECTRICAL & \PMECHANICAL PROPOSAL}
 73
     1
 44
1.0
  0
LWPOLYLINE
  5
ED3
330
1E
100
AcDbEntity
  8
0
380
     2
100
AcDbPolyline
 90
        2
 70
   128
 43
0.02
 10
6.650027612899616
 20
0.4250528344222947
 10
8.890027612899617
 20
0.4250528344222947
  0
LWPOLYLINE
  5
ED4
330
1E
100
AcDbEntity
  8
0
390
F
100
AcDbPolyline
 90
        2
 70
   128
 43
0.02
 10
8.890027612899617
 20
0.2500528344222945
 10
8.890027612899617
 20
1.095052834422294
  0
TEXT
  5
ED5
330
1E
100
AcDbEntity
  8
0
100
AcDbText
 10
7.828616123542508
 20
0.3062570435628018
 30
0.0
 40
0.0625
  1
DRAWN BY:
100
AcDbText
  0
TEXT
  5
ED6
330
1E
100
AcDbEntity
  8
0
100
AcDbText
 10
8.544628028304412
 20
0.3070903768961351
 30
0.0
 40
0.0625
  1
RD
 72
     1
 11
8.608616123542507
 21
0.2862570435628018
 31
0.0
100
AcDbText
 73
     1
  0
MTEXT
  5
ED7
330
1E
100
AcDbEntity
  8
0
100
AcDbMText
 10
6.717431391726728
 20
1.425636139280154
 30
0.0
 40
0.1
 41
4.0
 71
     4
 72
     5
  1
{\fTahoma|b0|i0|c0|p34;PROJECT: }
 73
     1
 44
1.0
  0
LWPOLYLINE
  5
ED8
330
1E
100
AcDbEntity
  8
0
380
     2
100
AcDbPolyline
 90
        2
 70
   128
 43
0.02
 10
7.770027612899616
 20
0.4250528344222947
 10
7.770027612899616
 20
0.2500528344222945
  0
MTEXT
  5
ED9
330
1E
100
AcDbEntity
  8
0
100
AcDbMText
 10
9.830702464152189
 20
0.3602764388692812
 30
0.0
 40
0.1
 41
1.705999999999999
 71
     5
 72
     5
  1
{\fTahoma|b0|i0|c0|p34;2LVM2G}
 73
     1
 44
1.0
  0
TEXT
  5
EDA
330
1E
100
AcDbEntity
  8
0
100
AcDbText
 10
8.956985094941849
 20
0.4594663362664207
 30
0.0
 40
0.0625
  1
DRAWING NUMBER:
100
AcDbText
  0
TEXT
  5
EDB
330
1E
100
AcDbEntity
  8
0
100
AcDbText
 10
7.111056599732983
 20
0.3070903768961351
 30
0.0
 40
0.0625
  1
01/08/19
 72
     1
 11
7.353616123542507
 21
0.2862570435628018
 31
0.0
100
AcDbText
 73
     1
  0
TEXT
  5
EDC
330
1E
100
AcDbEntity
  8
0
100
AcDbText
 10
6.713616123542507
 20
0.3062570435628018
 30
0.0
 40
0.0625
  1
DATE:
100
AcDbText
  0
INSERT
  5
1037
330
1E
100
AcDbEntity
  8
0
380
     2
100
AcDbBlockReference
  2
NEWLOGO
 10
9.771926090641478
 20
0.728195946832269
 30
0.0
  0
TEXT
  5
1530
330
1E
100
AcDbEntity
  8
0
100
AcDbText
 10
6.723633145382017
 20
5.60586067955614
 30
0.0
 40
0.0625
  1
BATTERY WARRANTY: 1 FULL YEAR, 9 YEAR PRORATA
100
AcDbText
  0
TEXT
  5
1531
330
1E
100
AcDbEntity
  8
0
100
AcDbText
 10
6.726781599997792
 20
5.70586067955614
 30
0.0
 40
0.0625
  1
SEALED LEAD CALCIUM VRLA/AGM (BAT-CG12024A); QUANTITY:  PIECE(S)
100
AcDbText
  0
TEXT
  5
1532
330
1E
100
AcDbEntity
  8
0
100
AcDbText
 10
6.723633145382017
 20
5.80586067955614
 30
0.0
 40
0.0625
  1
BATTERIES INCLUDED FOR 90 MINUTE RUN
100
AcDbText
  0
MTEXT
  5
1659
330
1E
100
AcDbEntity
  8
0
100
AcDbMText
 10
8.671772773404573
 20
5.485014464476457
 30
0.0
 40
0.125
 41
2.5
 71
     5
 72
     5
  1
{\fTahoma|b0|i0|c0|p34;STANDARD FEATURES}
 73
     1
 44
1.0
  0
MTEXT
  5
165B
330
1E
100
AcDbEntity
  8
0
100
AcDbMText
 10
8.621772773404568
 20
5.965279678632606
 30
0.0
 40
0.125
 41
2.5
 71
     5
 72
     5
  1
{\fTahoma|b0|i0|c0|p34;BATTERY DATA}
 73
     1
 44
1.0
  0
TEXT
  5
1663
330
1E
100
AcDbEntity
  8
0
100
AcDbText
 10
9.779613027989963
 20
5.705860679556139
 30
0.0
 40
0.0625
  1
2
 72
     1
 11
9.809374932751868
 21
5.705860679556139
 31
0.0
100
AcDbText
  0
TEXT
  5
1F82
330
1E
100
AcDbEntity
  8
0
100
AcDbText
 10
6.715999956123331
 20
5.321008471159429
 30
0.0
 40
0.0625
  1
SYSTEM STATUS INDICATORS AND MOMENTARY TEST SWITCH
100
AcDbText
  0
LINE
  5
2009
330
1E
100
AcDbEntity
  8
0
100
AcDbLine
 10
5.966616962801353
 20
6.965183203520368
 30
0.0
 11
5.966616962801353
 21
6.653314562591816
 31
0.0
  0
LINE
  5
200A
330
1E
100
AcDbEntity
  8
0
100
AcDbLine
 10
6.08814816465157
 20
7.04304282284184
 30
0.0
 11
6.08814816465157
 21
6.731174181913289
 31
0.0
  0
LINE
  5
200B
330
1E
100
AcDbEntity
  8
Emergency
  6
DASHED
 48
0.5
100
AcDbLine
 10
6.267196593093963
 20
7.338196755369418
 30
0.0
 11
6.267196593093949
 21
6.787139584644593
 31
0.0
  0
LINE
  5
200C
330
1E
100
AcDbEntity
  8
0
100
AcDbLine
 10
3.236915225377316
 20
6.899703630086712
 30
0.0
 11
3.236915225377316
 21
6.661302338684116
 31
0.0
  0
LINE
  5
200D
330
1E
100
AcDbEntity
  8
0
100
AcDbLine
 10
3.329817145174502
 20
6.959221745595506
 30
0.0
 11
3.329817145174502
 21
6.720820454192896
 31
0.0
  0
LINE
  5
200E
330
1E
100
AcDbEntity
  8
0
100
AcDbLine
 10
2.73578342032647
 20
6.661302338684116
 30
0.0
 11
2.73578342032647
 21
6.899703630086712
 31
0.0
  0
LINE
  5
200F
330
1E
100
AcDbEntity
  8
0
100
AcDbLine
 10
5.240095353225107
 20
6.653314562591816
 30
0.0
 11
5.240095353225107
 21
6.965183203520368
 31
0.0
  0
LINE
  5
2010
330
1E
100
AcDbEntity
  8
0
100
AcDbLine
 10
4.891843222387102
 20
7.022273245952096
 30
0.0
 11
4.891843222387102
 21
6.568255037279076
 31
0.0
  0
LINE
  5
2011
330
1E
100
AcDbEntity
  8
0
100
AcDbLine
 10
5.013374424237319
 20
7.100132865273568
 30
0.0
 11
5.013374424237291
 21
6.646114656600563
 31
0.0
  0
LINE
  5
2012
330
1E
100
AcDbEntity
  8
0
100
AcDbLine
 10
3.603472806269337
 20
6.568255037279062
 30
0.0
 11
3.603472806269309
 21
7.022273245952096
 31
0.0
  0
MTEXT
  5
2013
330
1E
100
AcDbEntity
  8
0
 48
0.5
100
AcDbMText
 10
4.251932674300768
 20
6.788919776426556
 30
0.0
 40
0.0625
 41
1.844
 71
     5
 72
     5
  1
{\Fromans.shx;MICROPROCESSOR\PCONTROLLED PWM\PBI-DIRECTIONAL\PINVERTER/BATT. CHARGER}
 73
     1
 44
1.0
1001
ACAD
1000
MTEXTBEGIN
1070
    73
1070
     1
1070
    44
1040
1.0
1070
    74
1070
     0
1000
MTEXTEND
  0
LWPOLYLINE
  5
2014
330
1E
100
AcDbEntity
  8
0
  6
DASHED
 48
2.0
100
AcDbPolyline
 90
        4
 70
     1
 43
0.0
 10
2.469231754533353
 20
7.994429893824431
 10
7.631518735270812
 20
7.994429893824431
 10
7.631518735270812
 20
6.340380531995105
 10
2.469231754533325
 20
6.340380531995105
  0
MTEXT
  5
2015
330
1E
100
AcDbEntity
  8
0
100
AcDbMText
 10
5.597487376060534
 20
6.809753070215464
 30
0.0
 40
0.0625
 41
0.566
 71
     5
 72
     5
  1
{\Fromans.shx;OUTPUT\PTRANSFORMER}
 73
     1
 44
1.0
1001
ACAD
1000
MTEXTBEGIN
1070
    73
1070
     1
1070
    44
1040
1.0
1070
    74
1070
     0
1000
MTEXTEND
  0
LINE
  5
2016
330
1E
100
AcDbEntity
  8
0
100
AcDbLine
 10
5.966616962801353
 20
6.653314562591802
 30
0.0
 11
5.240095353225107
 21
6.653314562591816
 31
0.0
  0
LINE
  5
2017
330
1E
100
AcDbEntity
  8
Emergency
  6
DASHED
 48
0.5
100
AcDbLine
 10
3.517540199977553
 20
6.766781785599544
 30
0.0
 11
3.294717725883991
 21
6.766781785599567
 31
0.0
  0
LINE
  5
2018
330
1E
100
AcDbEntity
  8
0
100
AcDbLine
 10
3.236915225377316
 20
6.661302338684116
 30
0.0
 11
2.73578342032647
 21
6.661302338684116
 31
0.0
  0
MTEXT
  5
2019
330
1E
100
AcDbEntity
  8
0
100
AcDbMText
 10
2.989506731609594
 20
6.781599522062556
 30
0.0
 40
0.0625
 41
0.45
 71
     5
 72
     5
  1
{\Fromans.shx;BATTERY}
 73
     1
 44
1.0
1001
ACAD
1000
MTEXTBEGIN
1070
    73
1070
     1
1070
    44
1040
1.0
1070
    74
1070
     0
1000
MTEXTEND
  0
LINE
  5
201A
330
1E
100
AcDbEntity
  8
0
100
AcDbLine
 10
3.329817145174502
 20
6.720820454192896
 30
0.0
 11
3.236915225377316
 21
6.661302338684116
 31
0.0
  0
LINE
  5
201B
330
1E
100
AcDbEntity
  8
0
100
AcDbLine
 10
4.891843222387073
 20
6.568255037279062
 30
0.0
 11
3.603472806269309
 21
6.568255037279076
 31
0.0
  0
SOLID
  5
201C
330
1E
100
AcDbEntity
  8
0
100
AcDbTrace
 10
3.489776798812279
 20
6.785639316425932
 30
0.0
 11
3.489776798812279
 21
6.748139316425923
 31
0.0
 12
3.60227679881229
 22
6.766889316425935
 32
0.0
 13
3.60227679881229
 23
6.766889316425935
 33
0.0
  0
LINE
  5
201D
330
1E
100
AcDbEntity
  8
0
100
AcDbLine
 10
5.013374424237319
 20
6.646114656600563
 30
0.0
 11
4.891843222387102
 21
6.568255037279076
 31
0.0
  0
LINE
  5
201E
330
1E
100
AcDbEntity
  8
Emergency
  6
DASHED
 48
0.5
100
AcDbLine
 10
5.152241309548834
 20
6.766781785599544
 30
0.0
 11
4.929418835455276
 21
6.766781785599567
 31
0.0
  0
SOLID
  5
201F
330
1E
100
AcDbEntity
  8
0
100
AcDbTrace
 10
5.12447790838356
 20
6.785639316425932
 30
0.0
 11
5.12447790838356
 21
6.748139316425923
 31
0.0
 12
5.24003365410541
 22
6.766889316425935
 32
0.0
 13
5.24003365410541
 23
6.766889316425935
 33
0.0
  0
LINE
  5
2020
330
1E
100
AcDbEntity
  8
Emergency
  6
DASHED
 48
0.5
100
AcDbLine
 10
6.267196593093949
 20
6.787139584644593
 30
0.0
 11
7.741735872821308
 21
6.787139584644594
 31
0.0
  0
LINE
  5
2021
330
1E
100
AcDbEntity
  8
0
100
AcDbLine
 10
6.08814816465157
 20
6.731174181913289
 30
0.0
 11
5.966616962801353
 21
6.653314562591816
 31
0.0
  0
TEXT
  5
2022
330
1E
100
AcDbEntity
  8
0
100
AcDbText
 10
7.957316641713717
 20
6.650968577066782
 30
0.0
 40
0.0625
  1
SWITCHED
100
AcDbText
  0
SOLID
  5
2023
330
1E
100
AcDbEntity
  8
0
100
AcDbTrace
 10
7.71782539365757
 20
6.805166361165609
 30
0.0
 11
7.71782539365757
 21
6.767666361165614
 31
0.0
 12
7.830325393657581
 22
6.786416361165612
 32
0.0
 13
7.830325393657581
 23
6.786416361165612
 33
0.0
  0
TEXT
  5
2024
330
1E
100
AcDbEntity
  8
0
100
AcDbText
 10
8.105265701704645
 20
6.747142664079632
 30
0.0
 40
0.0625
  1
OR
100
AcDbText
  0
LWPOLYLINE
  5
2025
330
1E
100
AcDbEntity
  8
0
100
AcDbPolyline
 90
        2
 70
     0
 10
5.574224915074395
 20
7.325604175064434
 40
0.0
 41
0.09720703125
 10
5.487144380021547
 20
7.325065337832462
 40
0.09720703125
 41
0.09720703125
  0
LINE
  5
2026
330
1E
100
AcDbEntity
  8
0
100
AcDbLine
 10
5.418329051498218
 20
7.513582477372188
 30
0.0
 11
5.872785889320468
 21
7.241211280824153
 31
0.0
  0
LINE
  5
2027
330
1E
100
AcDbEntity
  8
0
100
AcDbLine
 10
5.872785889320468
 20
7.241211280824153
 30
0.0
 11
5.418329051498218
 21
7.241211280824153
 31
0.0
  0
LINE
  5
2028
330
1E
100
AcDbEntity
  8
0
100
AcDbLine
 10
5.418329051498218
 20
7.513582477372188
 30
0.0
 11
5.872785889320468
 21
7.513582477372188
 31
0.0
  0
LINE
  5
2029
330
1E
100
AcDbEntity
  8
0
100
AcDbLine
 10
5.511230971295404
 20
7.573100592880968
 30
0.0
 11
5.965687809117653
 21
7.573100592880968
 31
0.0
  0
LINE
  5
202A
330
1E
100
AcDbEntity
  8
0
100
AcDbLine
 10
5.240095353225107
 20
6.965183203520368
 30
0.0
 11
5.966616962801353
 21
6.965183203520368
 31
0.0
  0
LINE
  5
202B
330
1E
100
AcDbEntity
  8
0
100
AcDbLine
 10
5.361626555075325
 20
7.04304282284184
 30
0.0
 11
6.08814816465157
 21
7.043042822841826
 31
0.0
  0
ARC
  5
202C
330
1E
100
AcDbEntity
  8
0
390
F
100
AcDbCircle
 10
3.393059875068402
 20
7.372551647751309
 30
0.0
 40
0.0443140250837999
100
AcDbArc
 50
180.0
 51
332.7294151767028
  0
MTEXT
  5
202D
330
1E
100
AcDbEntity
  8
0
100
AcDbMText
 10
3.353418094672349
 20
7.551083564319611
 30
0.0
 40
0.0625
 41
0.5660000000000001
 71
     5
 72
     5
  1
INPUT\PFUSE
 73
     1
 44
1.0
1001
ACAD
1000
MTEXTBEGIN
1070
    73
1070
     1
1070
    44
1040
1.0
1070
    74
1070
     0
1000
MTEXTEND
  0
LINE
  5
202E
330
1E
100
AcDbEntity
  8
Current
100
AcDbLine
 10
3.595511020515324
 20
6.864240911752364
 30
0.0
 11
3.299028879537935
 21
6.864240911752364
 31
0.0
  0
SOLID
  5
202F
330
1E
100
AcDbEntity
  8
0
100
AcDbTrace
 10
3.397507476977843
 20
6.846530896260606
 30
0.0
 11
3.397507476977843
 21
6.8840308962606
 31
0.0
 12
3.28500747697786
 22
6.865280896260603
 32
0.0
 13
3.28500747697786
 23
6.865280896260603
 33
0.0
  0
LINE
  5
2030
330
1E
100
AcDbEntity
  8
Current
100
AcDbLine
 10
3.237557919023036
 20
7.37250830594969
 30
0.0
 11
2.28844530111602
 21
7.372508305949692
 31
0.0
  0
LINE
  5
2031
330
1E
100
AcDbEntity
  8
0
100
AcDbLine
 10
2.828685340123655
 20
6.959221745595506
 30
0.0
 11
3.329817145174502
 21
6.959221745595506
 31
0.0
  0
LINE
  5
2032
330
1E
100
AcDbEntity
  8
0
100
AcDbLine
 10
2.73578342032647
 20
6.899703630086712
 30
0.0
 11
3.236915225377316
 21
6.899703630086712
 31
0.0
  0
LINE
  5
2033
330
1E
100
AcDbEntity
  8
0
100
AcDbLine
 10
2.828685340123655
 20
6.959221745595506
 30
0.0
 11
2.73578342032647
 21
6.899703630086712
 31
0.0
  0
LINE
  5
2034
330
1E
100
AcDbEntity
  8
0
100
AcDbLine
 10
3.236915225377316
 20
6.899703630086712
 30
0.0
 11
3.329817145174502
 21
6.959221745595506
 31
0.0
  0
SOLID
  5
2035
330
1E
100
AcDbEntity
  8
0
100
AcDbTrace
 10
2.351057826731583
 20
7.393634486374903
 30
0.0
 11
2.351057826731583
 21
7.356134486374909
 31
0.0
 12
2.463557826731594
 22
7.374884486374906
 32
0.0
 13
2.463557826731594
 23
7.374884486374906
 33
0.0
  0
CIRCLE
  5
2036
330
1E
100
AcDbEntity
  8
0
100
AcDbCircle
 10
3.258427874705223
 20
7.372147041538468
 30
0.0
 40
0.0208730822388838
  0
ARC
  5
2037
330
1E
100
AcDbEntity
  8
0
390
F
100
AcDbCircle
 10
3.304431824900802
 20
7.372551647751309
 30
0.0
 40
0.0443140250837999
100
AcDbArc
 50
0.0
 51
153.8647537895845
  0
LINE
  5
2038
330
1E
100
AcDbEntity
  8
0
100
AcDbLine
 10
5.511230971295404
 20
7.573100592880968
 30
0.0
 11
5.418329051498218
 21
7.513582477372188
 31
0.0
  0
MTEXT
  5
2039
330
1E
100
AcDbEntity
  8
0
100
AcDbMText
 10
5.134134066273865
 20
7.575076635338945
 30
0.0
 40
0.0625
 41
0.566
 71
     5
 72
     5
  1
{\Fromans.shx;AUTOMATIC\PTRANSFER\PMODULE}
 73
     1
 44
1.0
1001
ACAD
1000
MTEXTBEGIN
1070
    73
1070
     1
1070
    44
1040
1.0
1070
    74
1070
     0
1000
MTEXTEND
  0
LINE
  5
203A
330
1E
100
AcDbEntity
  8
0
100
AcDbLine
 10
3.603472806269309
 20
7.022273245952096
 30
0.0
 11
4.891843222387073
 21
7.022273245952096
 31
0.0
  0
LINE
  5
203B
330
1E
100
AcDbEntity
  8
0
100
AcDbLine
 10
3.750004008119525
 20
7.100132865273568
 30
0.0
 11
5.013374424237348
 21
7.100132865273568
 31
0.0
  0
LINE
  5
203C
330
1E
100
AcDbEntity
  8
Current
100
AcDbLine
 10
3.459403747707199
 20
7.372654294735731
 30
0.0
 11
5.418325948702182
 21
7.372654294735706
 31
0.0
  0
LINE
  5
203D
330
1E
100
AcDbEntity
  8
0
100
AcDbLine
 10
3.750004008119525
 20
7.100132865273568
 30
0.0
 11
3.603472806269309
 21
7.022273245952096
 31
0.0
  0
CIRCLE
  5
203E
330
1E
100
AcDbEntity
  8
0
100
AcDbCircle
 10
3.43874805175475
 20
7.372147041538468
 30
0.0
 40
0.0208730822388838
  0
SOLID
  5
203F
330
1E
100
AcDbEntity
  8
0
100
AcDbTrace
 10
3.753991686056416
 20
7.391404294735728
 30
0.0
 11
3.753991686056416
 21
7.35390429473572
 31
0.0
 12
3.866491686056399
 22
7.372654294735717
 32
0.0
 13
3.866491686056399
 23
7.372654294735717
 33
0.0
  0
LINE
  5
2040
330
1E
100
AcDbEntity
  8
0
100
AcDbLine
 10
4.891843222387102
 20
7.022273245952096
 30
0.0
 11
5.013374424237319
 21
7.100132865273568
 31
0.0
  0
LINE
  5
2041
330
1E
100
AcDbEntity
  8
Current
100
AcDbLine
 10
5.240095353225107
 20
6.864240911752364
 30
0.0
 11
4.943613212247718
 21
6.864240911752364
 31
0.0
  0
SOLID
  5
2042
330
1E
100
AcDbEntity
  8
0
100
AcDbTrace
 10
5.042091809687626
 20
6.846530896260606
 30
0.0
 11
5.042091809687626
 21
6.8840308962606
 31
0.0
 12
4.929591809687643
 22
6.865280896260603
 32
0.0
 13
4.929591809687643
 23
6.865280896260603
 33
0.0
  0
LINE
  5
2043
330
1E
100
AcDbEntity
  8
0
100
AcDbLine
 10
5.361626555075325
 20
7.04304282284184
 30
0.0
 11
5.240095353225107
 21
6.965183203520368
 31
0.0
  0
SOLID
  5
2044
330
1E
100
AcDbEntity
  8
0
100
AcDbTrace
 10
4.5262782669053
 20
7.391404294735728
 30
0.0
 11
4.5262782669053
 21
7.35390429473572
 31
0.0
 12
4.638778266905312
 22
7.372654294735717
 32
0.0
 13
4.638778266905312
 23
7.372654294735717
 33
0.0
  0
LINE
  5
2045
330
1E
100
AcDbEntity
  8
0
100
AcDbLine
 10
5.418329051498218
 20
7.241211280824153
 30
0.0
 11
5.418329051498218
 21
7.513582477372188
 31
0.0
  0
SOLID
  5
2046
330
1E
100
AcDbEntity
  8
0
100
AcDbTrace
 10
5.230632142265662
 20
7.391404294735728
 30
0.0
 11
5.230632142265662
 21
7.35390429473572
 31
0.0
 12
5.343132142265645
 22
7.372654294735717
 32
0.0
 13
5.343132142265645
 23
7.372654294735717
 33
0.0
  0
LINE
  5
2047
330
1E
100
AcDbEntity
  8
Current
100
AcDbLine
 10
7.741639756231144
 20
7.462702097898345
 30
0.0
 11
5.923191351926369
 21
7.462702097898345
 31
0.0
  0
LINE
  5
2048
330
1E
100
AcDbEntity
  8
Emergency
  6
DASHED
 48
0.5
100
AcDbLine
 10
5.923191351926369
 20
7.398667557662577
 30
0.0
 11
7.713401326109345
 21
7.398667557662578
 31
0.0
  0
LINE
  5
2049
330
1E
100
AcDbEntity
  8
0
100
AcDbLine
 10
5.872785889320468
 20
7.513582477372188
 30
0.0
 11
5.965687809117653
 21
7.573100592880968
 31
0.0
  0
LINE
  5
204A
330
1E
100
AcDbEntity
  8
0
100
AcDbLine
 10
5.965687809117653
 20
7.573100592880968
 30
0.0
 11
5.965687809117653
 21
7.300729396332933
 31
0.0
  0
SOLID
  5
204B
330
1E
100
AcDbEntity
  8
0
100
AcDbTrace
 10
5.575828993111485
 20
7.190271342206774
 30
0.0
 11
5.613328993111451
 21
7.190271342206774
 31
0.0
 12
5.594578993111468
 22
7.077771342206791
 32
0.0
 13
5.594578993111468
 23
7.077771342206791
 33
0.0
  0
SOLID
  5
204C
330
1E
100
AcDbEntity
  8
0
100
AcDbTrace
 10
5.715952225881267
 20
7.079799928485375
 30
0.0
 11
5.753452225881261
 21
7.079799928485375
 31
0.0
 12
5.734702225881278
 22
7.192299928485358
 32
0.0
 13
5.734702225881278
 23
7.192299928485358
 33
0.0
  0
LINE
  5
204D
330
1E
100
AcDbEntity
  8
Current
 48
0.5
100
AcDbLine
 10
5.594578993111497
 20
7.241211280824153
 30
0.0
 11
5.594578993111497
 21
6.995770334892728
 31
0.0
  0
LINE
  5
204E
330
1E
100
AcDbEntity
  8
Emergency
  6
DASHED
 48
0.25
100
AcDbLine
 10
5.734702225881278
 20
7.241211280824153
 30
0.0
 11
5.73470222588125
 21
6.995770334892728
 31
0.0
  0
LINE
  5
204F
330
1E
100
AcDbEntity
  8
0
100
AcDbLine
 10
5.966616962801353
 20
6.965183203520368
 30
0.0
 11
6.08814816465157
 21
7.04304282284184
 31
0.0
  0
LINE
  5
2050
330
1E
100
AcDbEntity
  8
Emergency
  6
DASHED
 48
0.5
100
AcDbLine
 10
5.923191351926369
 20
7.338196235049999
 30
0.0
 11
6.267196593093963
 21
7.338196755369418
 31
0.0
  0
LINE
  5
2051
330
1E
100
AcDbEntity
  8
0
100
AcDbLine
 10
5.574226263153505
 20
7.277129596376916
 30
0.0
 11
5.574226263153505
 21
7.374078781035883
 31
0.0
  0
LINE
  5
2052
330
1E
100
AcDbEntity
  8
0
100
AcDbLine
 10
5.872785889320468
 20
7.513582477372188
 30
0.0
 11
5.872785889320468
 21
7.241211280824153
 31
0.0
  0
LINE
  5
2053
330
1E
100
AcDbEntity
  8
0
100
AcDbLine
 10
5.597638257698392
 20
7.270761600678149
 30
0.0
 11
5.574226263153505
 21
7.292854621837356
 31
0.0
  0
LINE
  5
2054
330
1E
100
AcDbEntity
  8
0
100
AcDbLine
 10
5.965687809117653
 20
7.300729396332933
 30
0.0
 11
5.872785889320468
 21
7.241211280824153
 31
0.0
  0
LINE
  5
2055
330
1E
100
AcDbEntity
  8
0
100
AcDbLine
 10
5.813323978340648
 20
7.379926863358299
 30
0.0
 11
5.789911983795761
 21
7.402019884517507
 31
0.0
  0
LINE
  5
2056
330
1E
100
AcDbEntity
  8
0
100
AcDbLine
 10
5.789911983795761
 20
7.386294859057052
 30
0.0
 11
5.789911983795761
 21
7.483244043716034
 31
0.0
  0
LWPOLYLINE
  5
2057
330
1E
100
AcDbEntity
  8
0
100
AcDbPolyline
 90
        2
 70
     0
 10
5.789910635716651
 20
7.434769437744584
 40
0.0
 41
0.09720703125
 10
5.702830100663803
 20
7.434230600512599
 40
0.09720703125
 41
0.09720703125
  0
TEXT
  5
2058
330
1E
100
AcDbEntity
  8
0
100
AcDbText
 10
7.722780468397779
 20
6.84704660662485
 30
0.0
 40
0.0625
  1
* NORMALLY OFF
100
AcDbText
  0
TEXT
  5
2059
330
1E
100
AcDbEntity
  8
0
100
AcDbText
 10
7.989915301027764
 20
7.354497643214108
 30
0.0
 40
0.0625
  1
OUTPUT
100
AcDbText
  0
TEXT
  5
205A
330
1E
100
AcDbEntity
  8
0
100
AcDbText
 10
7.838593442995879
 20
7.458664309880774
 30
0.0
 40
0.0625
  1
NORMALLY ON
100
AcDbText
  0
SOLID
  5
205B
330
1E
100
AcDbEntity
  8
0
100
AcDbTrace
 10
7.707907410463867
 20
7.48149795102484
 30
0.0
 11
7.707907410463867
 21
7.443997951024831
 31
0.0
 12
7.820407410463879
 22
7.462747951024843
 32
0.0
 13
7.820407410463879
 23
7.462747951024843
 33
0.0
  0
SOLID
  5
205C
330
1E
100
AcDbEntity
  8
0
100
AcDbTrace
 10
7.707907410463867
 20
7.416784064421532
 30
0.0
 11
7.707907410463867
 21
7.379284064421538
 31
0.0
 12
7.820407410463879
 22
7.398034064421535
 32
0.0
 13
7.820407410463879
 23
7.398034064421535
 33
0.0
  0
TEXT
  5
205D
330
1E
100
AcDbEntity
  8
0
100
AcDbText
 10
9.527844443700047
 20
6.328262640034708
 30
0.0
 40
0.0625
  1
.81 MAX.
100
AcDbText
  0
TEXT
  5
205F
330
1E
100
AcDbEntity
  8
0
100
AcDbText
 10
9.54458099223439
 20
7.838548918026546
 30
0.0
 40
0.0625
  1
277VAC NORM.
100
AcDbText
  0
TEXT
  5
2060
330
1E
100
AcDbEntity
  8
0
100
AcDbText
 10
9.54458099223439
 20
7.713548918026546
 30
0.0
 40
0.0625
  1
277VAC EMERG.
100
AcDbText
  0
TEXT
  5
2061
330
1E
100
AcDbEntity
  8
0
100
AcDbText
 10
9.535652420805817
 20
7.338548918026546
 30
0.0
 40
0.0625
  1
.81 MAX.
100
AcDbText
  0
TEXT
  5
2062
330
1E
100
AcDbEntity
  8
0
100
AcDbText
 10
9.54458099223439
 20
6.697885027797457
 30
0.0
 40
0.0625
  1
277VAC EMERG.
100
AcDbText
  0
TEXT
  5
2063
330
1E
100
AcDbEntity
  8
0
100
AcDbText
 10
9.54458099223439
 20
6.822885027797457
 30
0.0
 40
0.0625
  1
0VAC NORM.
100
AcDbText
  0
LINE
  5
2064
330
1E
100
AcDbEntity
  8
0
100
AcDbLine
 10
8.784931524220066
 20
7.934410054923271
 30
0.0
 11
10.50918789547097
 21
7.934410054923271
 31
0.0
  0
LINE
  5
2065
330
1E
100
AcDbEntity
  8
0
100
AcDbLine
 10
8.784931524220066
 20
7.809410054923271
 30
0.0
 11
10.50918789547097
 21
7.809410054923267
 31
0.0
  0
LINE
  5
2066
330
1E
100
AcDbEntity
  8
0
100
AcDbLine
 10
8.784931524220066
 20
7.684410054923269
 30
0.0
 11
10.50918789547097
 21
7.684410054923269
 31
0.0
  0
LINE
  5
2067
330
1E
100
AcDbEntity
  8
0
100
AcDbLine
 10
8.784931524220066
 20
7.559410054923269
 30
0.0
 11
10.50918789547097
 21
7.559410054923271
 31
0.0
  0
LINE
  5
2068
330
1E
100
AcDbEntity
  8
0
100
AcDbLine
 10
8.784931524220066
 20
7.434410054923269
 30
0.0
 11
10.50918789547097
 21
7.434410054923269
 31
0.0
  0
LINE
  5
2069
330
1E
100
AcDbEntity
  8
0
100
AcDbLine
 10
8.784931524220066
 20
7.309410054923269
 30
0.0
 11
10.50918789547097
 21
7.309410054923269
 31
0.0
  0
LINE
  5
206A
330
1E
100
AcDbEntity
  8
0
100
AcDbLine
 10
8.784931524220066
 20
7.184410054923269
 30
0.0
 11
10.50918789547097
 21
7.184410054923269
 31
0.0
  0
LINE
  5
206B
330
1E
100
AcDbEntity
  8
0
100
AcDbLine
 10
8.784931524220066
 20
6.16874616469418
 30
0.0
 11
10.50918789547097
 21
6.16874616469418
 31
0.0
  0
LINE
  5
206C
330
1E
100
AcDbEntity
  8
0
100
AcDbLine
 10
8.784931524220066
 20
6.29374616469418
 30
0.0
 11
10.50918789547097
 21
6.29374616469418
 31
0.0
  0
LINE
  5
206D
330
1E
100
AcDbEntity
  8
0
100
AcDbLine
 10
8.784931524220066
 20
6.41874616469418
 30
0.0
 11
10.50918789547097
 21
6.41874616469418
 31
0.0
  0
LINE
  5
206E
330
1E
100
AcDbEntity
  8
0
100
AcDbLine
 10
8.784931524220066
 20
6.54374616469418
 30
0.0
 11
10.50918789547097
 21
6.543746164694184
 31
0.0
  0
LINE
  5
206F
330
1E
100
AcDbEntity
  8
0
100
AcDbLine
 10
8.784931524220066
 20
6.66874616469418
 30
0.0
 11
10.50918789547097
 21
6.66874616469418
 31
0.0
  0
LINE
  5
2070
330
1E
100
AcDbEntity
  8
0
100
AcDbLine
 10
8.784931524220066
 20
6.79374616469418
 30
0.0
 11
10.50918789547097
 21
6.793746164694178
 31
0.0
  0
LINE
  5
2071
330
1E
100
AcDbEntity
  8
0
100
AcDbLine
 10
8.784931524220066
 20
6.91874616469418
 30
0.0
 11
10.50918789547097
 21
6.91874616469418
 31
0.0
  0
MTEXT
  5
2072
330
1E
100
AcDbEntity
  8
0
100
AcDbMText
 10
9.453704490607794
 20
6.854135027797457
 30
0.0
 40
0.0625
 41
0.7314
 71
     6
 72
     5
  1
VOLTAGE
 73
     1
 44
1.0
1001
ACAD
1000
MTEXTBEGIN
1070
    73
1070
     1
1070
    44
1040
1.0
1070
    74
1070
     0
1000
MTEXTEND
  0
LINE
  5
2073
330
1E
100
AcDbEntity
  8
0
100
AcDbLine
 10
9.512541134434389
 20
6.91874616469418
 30
0.0
 11
9.512541134434389
 21
6.16874616469418
 31
0.0
  0
MTEXT
  5
2074
330
1E
100
AcDbEntity
  8
0
100
AcDbMText
 10
9.453704490607794
 20
6.479135027797457
 30
0.0
 40
0.0625
 41
0.7314
 71
     6
 72
     5
  1
# OF PHASES
 73
     1
 44
1.0
1001
ACAD
1000
MTEXTBEGIN
1070
    73
1070
     1
1070
    44
1040
1.0
1070
    74
1070
     0
1000
MTEXTEND
  0
TEXT
  5
2075
330
1E
100
AcDbEntity
  8
0
100
AcDbText
 10
9.609421575499581
 20
6.447885027797457
 30
0.0
 40
0.0625
  1
1
100
AcDbText
  0
MTEXT
  5
2076
330
1E
100
AcDbEntity
  8
0
100
AcDbMText
 10
9.453704490607794
 20
6.229135027797457
 30
0.0
 40
0.0625
 41
0.7314
 71
     6
 72
     5
  1
WIRING
 73
     1
 44
1.0
1001
ACAD
1000
MTEXTBEGIN
1070
    73
1070
     1
1070
    44
1040
1.0
1070
    74
1070
     0
1000
MTEXTEND
  0
MTEXT
  5
2077
330
1E
100
AcDbEntity
  8
0
100
AcDbMText
 10
9.453704490607794
 20
6.354135027797457
 30
0.0
 40
0.0625
 41
0.7314
 71
     6
 72
     5
  1
AMPS/PHASE
 73
     1
 44
1.0
1001
ACAD
1000
MTEXTBEGIN
1070
    73
1070
     1
1070
    44
1040
1.0
1070
    74
1070
     0
1000
MTEXTEND
  0
TEXT
  5
2078
330
1E
100
AcDbEntity
  8
0
100
AcDbText
 10
9.54458099223439
 20
6.197885027797457
 30
0.0
 40
0.0625
  1
2W+G
100
AcDbText
  0
MTEXT
  5
2079
330
1E
100
AcDbEntity
  8
0
100
AcDbMText
 10
9.453704490607794
 20
6.729135027797457
 30
0.0
 40
0.0625
 41
0.7314
 71
     6
 72
     5
  1
VOLTAGE
 73
     1
 44
1.0
1001
ACAD
1000
MTEXTBEGIN
1070
    73
1070
     1
1070
    44
1040
1.0
1070
    74
1070
     0
1000
MTEXTEND
  0
MTEXT
  5
207A
330
1E
100
AcDbEntity
  8
0
100
AcDbMText
 10
9.453704490607794
 20
6.604135027797457
 30
0.0
 40
0.0625
 41
0.7314
 71
     6
 72
     5
  1
Hz
 73
     1
 44
1.0
1001
ACAD
1000
MTEXTBEGIN
1070
    73
1070
     1
1070
    44
1040
1.0
1070
    74
1070
     0
1000
MTEXTEND
  0
TEXT
  5
207B
330
1E
100
AcDbEntity
  8
0
100
AcDbText
 10
9.615373956451961
 20
6.572885027797457
 30
0.0
 40
0.0625
  1
60
100
AcDbText
  0
TEXT
  5
207C
330
1E
100
AcDbEntity
  8
0
100
AcDbText
 10
9.609421575499581
 20
7.463548918026546
 30
0.0
 40
0.0625
  1
1
100
AcDbText
  0
MTEXT
  5
207D
330
1E
100
AcDbEntity
  8
0
100
AcDbMText
 10
9.453704490607794
 20
7.494798918026546
 30
0.0
 40
0.0625
 41
0.7314
 71
     6
 72
     5
  1
# OF PHASES
 73
     1
 44
1.0
1001
ACAD
1000
MTEXTBEGIN
1070
    73
1070
     1
1070
    44
1040
1.0
1070
    74
1070
     0
1000
MTEXTEND
  0
LINE
  5
207E
330
1E
100
AcDbEntity
  8
0
100
AcDbLine
 10
9.512541134434389
 20
7.934410054923271
 30
0.0
 11
9.512541134434389
 21
7.184410054923269
 31
0.0
  0
MTEXT
  5
207F
330
1E
100
AcDbEntity
  8
0
100
AcDbMText
 10
9.453704490607794
 20
7.369798918026546
 30
0.0
 40
0.0625
 41
0.7314
 71
     6
 72
     5
  1
AMPS/PHASE
 73
     1
 44
1.0
1001
ACAD
1000
MTEXTBEGIN
1070
    73
1070
     1
1070
    44
1040
1.0
1070
    74
1070
     0
1000
MTEXTEND
  0
MTEXT
  5
2080
330
1E
100
AcDbEntity
  8
0
100
AcDbMText
 10
9.453704490607794
 20
7.244798918026546
 30
0.0
 40
0.0625
 41
0.7314
 71
     6
 72
     5
  1
WIRING
 73
     1
 44
1.0
1001
ACAD
1000
MTEXTBEGIN
1070
    73
1070
     1
1070
    44
1040
1.0
1070
    74
1070
     0
1000
MTEXTEND
  0
TEXT
  5
2081
330
1E
100
AcDbEntity
  8
0
100
AcDbText
 10
9.54458099223439
 20
7.213548918026546
 30
0.0
 40
0.0625
  1
2W+G
100
AcDbText
  0
MTEXT
  5
2082
330
1E
100
AcDbEntity
  8
0
100
AcDbMText
 10
9.453704490607794
 20
7.869798918026546
 30
0.0
 40
0.0625
 41
0.7314
 71
     6
 72
     5
  1
VOLTAGE
 73
     1
 44
1.0
1001
ACAD
1000
MTEXTBEGIN
1070
    73
1070
     1
1070
    44
1040
1.0
1070
    74
1070
     0
1000
MTEXTEND
  0
MTEXT
  5
2083
330
1E
100
AcDbEntity
  8
0
100
AcDbMText
 10
9.453704490607794
 20
7.744798918026546
 30
0.0
 40
0.0625
 41
0.7314
 71
     6
 72
     5
  1
VOLTAGE
 73
     1
 44
1.0
1001
ACAD
1000
MTEXTBEGIN
1070
    73
1070
     1
1070
    44
1040
1.0
1070
    74
1070
     0
1000
MTEXTEND
  0
MTEXT
  5
2084
330
1E
100
AcDbEntity
  8
0
100
AcDbMText
 10
9.453704490607794
 20
7.619798918026546
 30
0.0
 40
0.0625
 41
0.7314
 71
     6
 72
     5
  1
Hz
 73
     1
 44
1.0
1001
ACAD
1000
MTEXTBEGIN
1070
    73
1070
     1
1070
    44
1040
1.0
1070
    74
1070
     0
1000
MTEXTEND
  0
TEXT
  5
2085
330
1E
100
AcDbEntity
  8
0
100
AcDbText
 10
9.615373956451961
 20
7.588548918026544
 30
0.0
 40
0.0625
  1
60
100
AcDbText
  0
TEXT
  5
2424
330
1E
100
AcDbEntity
  8
0
100
AcDbText
 10
6.793345884052512
 20
1.614264488894121
 30
0.0
 40
0.0625
  1
UNIT WILL SUPPORT ALL LIGHTING LOADS INCLUDING H.I.D. (2ms TRANSFER)
100
AcDbText
  0
TEXT
  5
2A65
330
1E
100
AcDbEntity
  8
0
100
AcDbText
 10
6.714560127455307
 20
4.231912697083261
 30
0.0
 40
0.0625
  1
SUMMARY ALARM DRY FORM C CONTACTS
100
AcDbText
  0
TEXT
  5
2A66
330
1E
100
AcDbEntity
  8
0
100
AcDbText
 10
6.711761138603527
 20
4.124475232885214
 30
0.0
 40
0.0625
  1
ELECTRONICS WARRANTY: 3 YEARS FULL (PARTS & LABOR)
100
AcDbText
  0
TEXT
  5
2A67
330
1E
100
AcDbEntity
  8
0
100
AcDbText
 10
6.711833974313044
 20
4.340061284612461
 30
0.0
 40
0.0625
  1
INPUT FUSE AND BATTERY FUSE PROTECTION
100
AcDbText
  0
TEXT
  5
2A68
330
1E
100
AcDbEntity
  8
0
100
AcDbText
 10
6.711675889426324
 20
4.016855300622392
 30
0.0
 40
0.0625
  1
RED ENCLOSURE
100
AcDbText
  0
TEXT
  5
2A6A
330
1E
100
AcDbEntity
  8
0
100
AcDbText
 10
6.714653258846404
 20
4.996999774142119
 30
0.0
 40
0.0625
  1
ONE MINUTE INVERTER RETRANSFER DELAY UPON RETURN OF UTILITY POWER 
100
AcDbText
  0
TEXT
  5
2A6B
330
1E
100
AcDbEntity
  8
0
100
AcDbText
 10
6.711694664800496
 20
5.211950091358057
 30
0.0
 40
0.0625
  1
UL924 SELF TESTING AND DIAGNOSTIC VIA LED INDICATOR PANEL
100
AcDbText
  0
TEXT
  5
2A6C
330
1E
100
AcDbEntity
  8
0
380
     2
100
AcDbText
 10
6.70522290877377
 20
4.889189713953606
 30
0.0
 40
0.063
  1
15 MINUTE NORMALLY OFF TIME DELAY ON TRANSFER BACK TO UTILITY
100
AcDbText
  0
TEXT
  5
2A6D
330
1E
100
AcDbEntity
  8
0
380
     2
100
AcDbText
 10
6.705021342530962
 20
4.66810568086713
 30
0.0
 40
0.063
  1
10% LOAD REDUCTION ALARM
100
AcDbText
  0
TEXT
  5
2A6E
330
1E
100
AcDbEntity
  8
0
380
     2
100
AcDbText
 10
6.862170323227424
 20
4.776071355918085
 30
0.0
 40
0.063
  1
(JUMPER SELECTED NORMALLY OPEN TIMER)
100
AcDbText
  0
TEXT
  5
2A6F
330
1E
100
AcDbEntity
  8
0
380
     2
100
AcDbText
 10
6.862170323227424
 20
4.555427841443334
 30
0.0
 40
0.063
  1
(JUMPER SELECTED NORMALLY OPEN TIMER)
100
AcDbText
  0
TEXT
  5
2A70
330
1E
100
AcDbEntity
  8
0
100
AcDbText
 10
6.711652015934909
 20
5.104420695554689
 30
0.0
 40
0.0625
  1
UL924 LISTED
100
AcDbText
  0
TEXT
  5
2A71
330
1E
100
AcDbEntity
  8
0
380
     2
100
AcDbText
 10
6.711428894497238
 20
4.447513226729966
 30
0.0
 40
0.063
  1
ISOLATED SWITCHED OUTPUT
100
AcDbText
  0
TEXT
  5
2A73
330
1E
100
AcDbEntity
  8
0
380
     2
100
AcDbText
 10
0.3205430035904708
 20
0.6540769976198235
 30
0.0
 40
0.063
  1
REQUIRED CLEARANCE
100
AcDbText
  0
TEXT
  5
2A74
330
1E
100
AcDbEntity
  8
0
380
     2
100
AcDbText
 10
0.3253895600940506
 20
0.5428440235818272
 30
0.0
 40
0.063
  1
TOP-6"(15.24cm)
100
AcDbText
  0
TEXT
  5
2A75
330
1E
100
AcDbEntity
  8
0
380
     2
100
AcDbText
 10
0.3253895600940506
 20
0.4358965067432216
 30
0.0
 40
0.063
  1
SIDES-2"(5.1cm)
100
AcDbText
  0
TEXT
  5
2A76
330
1E
100
AcDbEntity
  8
0
380
     2
100
AcDbText
 10
0.3326593441542851
 20
0.3293384222599819
 30
0.0
 40
0.063
  1
FRONT-36"(30.5cm)
100
AcDbText
  0
LINE
  5
2A77
330
1E
100
AcDbEntity
  8
0
380
     2
100
AcDbLine
 10
0.3306077119530766
 20
0.6395364883957896
 30
0.0
 11
1.364732593454069
 21
0.6395364883957896
 31
0.0
  0
MTEXT
  5
2A78
330
1E
100
AcDbEntity
  8
0
100
AcDbMText
 10
5.664509548046862
 20
0.6009121085769201
 30
0.0
 40
0.0938
 41
2.801999999999999
 71
     5
 72
     5
  1
225W/VA LVM CABINET\PWALL OR RECESS MOUNT\P{\H0.6663x;(NEMA TYPE 1)\PTOTAL WEIGHT: 60 lbs}
 73
     1
 44
1.0
1001
ACAD
1000
MTEXTBEGIN
1070
    73
1070
     1
1070
    44
1040
1.0
1070
    74
1070
     0
1000
MTEXTEND
  0
TEXT
  5
2A79
330
1E
100
AcDbEntity
  8
0
100
AcDbText
 10
3.252910574358918
 20
6.210303872176864
 30
0.0
 40
0.0625
  1
* NORMALLY OFF OUTPUT IS NOT AVAILABLE WHEN USING SWITCHED OUTPUT
100
AcDbText
  0
LINE
  5
2A8C
330
1E
100
AcDbEntity
  8
0
380
     2
100
AcDbLine
 10
9.775
 20
5.675
 30
0.0
 11
9.850000000000001
 21
5.675
 31
0.0
  0
INSERT
  5
3589
330
1E
100
AcDbEntity
  8
0
100
AcDbBlockReference
  2
LVMGRID
 10
3.053847544361424
 20
2.757515344383121
 30
0.0
  0
VIEWPORT
  5
4A1
330
49A
100
AcDbEntity
 67
     1
  8
0
380
     2
100
AcDbViewport
 10
5.375000360443835
 20
4.12500018209923
 30
0.0
 40
16.74904531991129
 41
8.993000381349579
 68
     1
 69
     1
 12
5.375000360443835
 22
4.12500018209923
 13
0.0
 23
0.0
 14
0.5
 24
0.5
 15
0.5
 25
0.5
 16
0.0
 26
0.0
 36
1.0
 17
0.0
 27
0.0
 37
0.0
 42
50.0
 43
0.0
 44
0.0
 45
8.993000381349579
 50
0.0
 51
0.0
 72
   100
 90
    32800
  1

281
     0
 71
     1
 74
     0
110
0.0
120
0.0
130
0.0
111
1.0
121
0.0
131
0.0
112
0.0
122
1.0
132
0.0
 79
     0
146
0.0
  0
ENDSEC
  0
SECTION
  2
OBJECTS
  0
DICTIONARY
  5
C
330
0
100
AcDbDictionary
281
     1
  3
ACAD_GROUP
350
D
  3
ACAD_LAYOUT
350
19
  3
ACAD_MLINESTYLE
350
16
  3
ACAD_PLOTSETTINGS
350
18
  3
ACAD_PLOTSTYLENAME
350
E
  3
AcDbVariableDictionary
350
E8F
  0
DICTIONARY
  5
62F
330
2
100
AcDbDictionary
280
     1
281
     1
  3
ACAD_LAYERFILTERS
360
630
  3
ACAD_LAYERSTATES
360
33DE
  0
DICTIONARY
  5
706
330
705
100
AcDbDictionary
280
     1
281
     1
  3
ADSK_XREC_LAYER_RECONCILED
360
707
  0
DICTIONARY
  5
709
330
708
100
AcDbDictionary
280
     1
281
     1
  3
ADSK_XREC_LAYER_RECONCILED
360
70A
  0
DICTIONARY
  5
16BD
330
16BC
100
AcDbDictionary
280
     1
281
     1
  3
ADSK_XREC_LAYER_RECONCILED
360
16BE
  0
DICTIONARY
  5
D
102
{ACAD_REACTORS
330
C
102
}
330
C
100
AcDbDictionary
281
     1
  0
DICTIONARY
  5
19
102
{ACAD_REACTORS
330
C
102
}
330
C
100
AcDbDictionary
281
     1
  3
Layout1
350
49B
  3
Model
350
21
  0
DICTIONARY
  5
16
102
{ACAD_REACTORS
330
C
102
}
330
C
100
AcDbDictionary
281
     1
  3
Standard
350
17
  0
DICTIONARY
  5
18
102
{ACAD_REACTORS
330
C
102
}
330
C
100
AcDbDictionary
281
     1
  0
ACDBDICTIONARYWDFLT
  5
E
102
{ACAD_REACTORS
330
C
102
}
330
C
100
AcDbDictionary
281
     1
  3
Normal
350
F
100
AcDbDictionaryWithDefault
340
F
  0
DICTIONARY
  5
E8F
102
{ACAD_REACTORS
330
C
102
}
330
C
100
AcDbDictionary
281
     1
  3
DIMASSOC
350
E90
  0
DICTIONARY
  5
630
102
{ACAD_REACTORS
330
62F
102
}
330
62F
100
AcDbDictionary
280
     1
281
     1
  3
$0$
360
631
  3
1
360
632
  3
12
360
633
  3
130
360
634
  3
147
360
635
  3
2
360
636
  3
214
360
637
  3
251
360
638
  3
253
360
639
  3
40
360
63A
  3
9
360
63B
  3
96
360
63C
  3
A
360
63D
  3
a-
360
63E
  3
ANELLO
360
63F
  3
ARANCIO
360
640
  3
AREAhatches
360
641
  3
ASDF
360
642
  3
ASSI
360
643
  3
bem
360
644
  3
BIANCO
360
645
  3
bliglietterie_automatiche
360
646
  3
BLK
360
647
  3
box
360
648
  3
BP
360
649
  3
BUB
360
64A
  3
C
360
64B
  3
C0112
360
64C
  3
c_
360
64D
  3
Calques axes
360
64E
  3
Calques caches
360
64F
  3
Calques forts
360
650
  3
camp
360
651
  3
CARTA
360
652
  3
CASE
360
653
  3
CD
360
654
  3
CDFF
360
655
  3
ce
360
656
  3
chframe
360
657
  3
COL
360
658
  3
color
360
659
  3
colori
360
65A
  3
contour
360
65B
  3
CYAN
360
65C
  3
D
360
65D
  3
de
360
65E
  3
DEFPOINTS
360
65F
  3
DEMO
360
660
  3
dim
360
661
  3
DIMS
360
662
  3
DR
360
663
  3
DRAN
360
664
  3
DUN
360
665
  3
E-layers
360
666
  3
ECW
360
667
  3
elec
360
668
  3
ETK
360
669
  3
excon master$0$
360
66A
  3
exist
360
66B
  3
EXIST CONTOURS
360
66C
  3
F
360
66D
  3
FENETRE ACTIF
360
66E
  3
FGT
360
66F
  3
fil1
360
670
  3
fior
360
671
  3
fiorier
360
672
  3
fiorire
360
673
  3
first
360
674
  3
FIX
360
675
  3
FLOOR FIN
360
676
  3
fndn
360
677
  3
FOOTPRINT
360
678
  3
FR-L
360
679
  3
freccia
360
67A
  3
freccie
360
67B
  3
froz
360
67C
  3
frozen
360
67D
  3
FRZ
360
67E
  3
GEE
360
67F
  3
GIALLO
360
680
  3
GOOKIN 01970 BASE
360
681
  3
grid
360
682
  3
Grossa
360
683
  3
grosse
360
684
  3
HATCH
360
685
  3
HATCHED
360
686
  3
herrajes
360
687
  3
HORIZARALBL
360
688
  3
HTC
360
689
  3
HTCH
360
68A
  3
INC
360
68B
  3
intervento
360
68C
  3
JUNK
360
68D
  3
JustOn
360
68E
  3
KIM
360
68F
  3
L
360
690
  3
layer_sc_
360
691
  3
lbl
360
692
  3
LIBERE
360
693
  3
LINEE-TRAT
360
694
  3
lll
360
695
  3
LOCKED
360
696
  3
M-
360
697
  3
m53
360
698
  3
MAGENTA
360
699
  3
marc
360
69A
  3
mauro1
360
69B
  3
mech
360
69C
  3
MILL
360
69D
  3
mine
360
69E
  3
mq
360
69F
  3
N
360
6A0
  3
NASCOSTO
360
6A1
  3
OFF
360
6A2
  3
ombre
360
6A3
  3
ON
360
6A4
  3
OXY-VERDE
360
6A5
  3
P
360
6A6
  3
P-LAYERS
360
6A7
  3
P-WALLS
360
6A8
  3
P48
360
6A9
  3
P96
360
6AA
  3
PAPER
360
6AB
  3
parcheggio
360
6AC
  3
pav
360
6AD
  3
PEGC
360
6AE
  3
PEGCT
360
6AF
  3
PGRIDT
360
6B0
  3
PIPE
360
6B1
  3
PIT
360
6B2
  3
PL
360
6B3
  3
plan
360
6B4
  3
PLATFM
360
6B5
  3
PLMG
360
6B6
  3
PLUMB
360
6B7
  3
PPIPE
360
6B8
  3
primo
360
6B9
  3
PRISR
360
6BA
  3
proiez
360
6BB
  3
RAIL
360
6BC
  3
RCP
360
6BD
  3
rd
360
6BE
  3
RED
360
6BF
  3
RISR
360
6C0
  3
roof
360
6C1
  3
ROSSO
360
6C2
  3
ROTAIA
360
6C3
  3
RR_SWITCH
360
6C4
  3
sc
360
6C5
  3
scalehidden
360
6C6
  3
SH
360
6C7
  3
Sottile
360
6C8
  3
sottili
360
6C9
  3
SPENTI
360
6CA
  3
STAPTS
360
6CB
  3
strade
360
6CC
  3
struct
360
6CD
  3
SUR
360
6CE
  3
temp
360
6CF
  3
test
360
6D0
  3
testi
360
6D1
  3
transito
360
6D2
  3
tratt
360
6D3
  3
trattegg
360
6D4
  3
tratteggiate
360
6D5
  3
TRATTEGGIO
360
6D6
  3
Tratti
360
6D7
  3
TWO
360
6D8
  3
TX
360
6D9
  3
TXT
360
6DA
  3
U-POLE
360
6DB
  3
UL
360
6DC
  3
upole
360
6DD
  3
V
360
6DE
  3
vetrate
360
6DF
  3
WALL
360
6E0
  3
WALLS
360
6E1
  3
WIN
360
6E2
  3
X
360
6E3
  3
XESITE
360
6E4
  3
XREF
360
6E5
  3
XS
360
6E6
  3
xsect
360
6E7
  3
Y
360
6E8
  3
Z
360
6E9
  0
DICTIONARY
  5
33DE
102
{ACAD_REACTORS
330
62F
102
}
330
62F
100
AcDbDictionary
281
     1
  0
XRECORD
  5
707
102
{ACAD_REACTORS
330
706
102
}
330
706
100
AcDbXrecord
280
     1
290
     1
  0
XRECORD
  5
70A
102
{ACAD_REACTORS
330
709
102
}
330
709
100
AcDbXrecord
280
     1
290
     1
  0
XRECORD
  5
16BE
102
{ACAD_REACTORS
330
16BD
102
}
330
16BD
100
AcDbXrecord
280
     1
290
     1
  0
LAYOUT
  5
49B
102
{ACAD_REACTORS
330
19
102
}
330
19
100
AcDbPlotSettings
  1

  2
C:\Program Files\AutoCAD LT 2000i\plotters\Kyocera KM-5050 KX.pc3
  4
User256
  6

 40
3.174999952316284
 41
3.174999952316284
 42
3.175003051757812
 43
3.17498779296875
 44
215.9000091552734
 45
279.3999938964843
 46
0.0
 47
0.0
 48
0.0
 49
0.0
140
0.0
141
0.0
142
1.0
143
1.0
 70
   688
 72
     0
 73
     1
 74
     5
  7
monochrome.stb
 75
    16
147
1.0
148
0.0
149
0.0
100
AcDbLayout
  1
Layout1
 70
     1
 71
     1
 10
-0.1249995194082185
 20
-0.1249999981226883
 11
10.87500024029589
 21
8.375000362321149
 12
0.0
 22
0.0
 32
0.0
 14
1.000000000000000E+20
 24
1.000000000000000E+20
 34
1.000000000000000E+20
 15
-1.000000000000000E+20
 25
-1.000000000000000E+20
 35
-1.000000000000000E+20
146
0.0
 13
0.0
 23
0.0
 33
0.0
 16
1.0
 26
0.0
 36
0.0
 17
0.0
 27
1.0
 37
0.0
 76
     0
330
49A
331
4A1
  0
LAYOUT
  5
21
102
{ACAD_REACTORS
330
19
102
}
330
19
100
AcDbPlotSettings
  1

  2
\\pamacola\SHARP MX-M565N PCL6
  4
Letter
  6
OLE1
 40
5.027083396911621
 41
5.027085304260253
 42
5.027084350585937
 43
5.027069091796875
 44
215.8999938964843
 45
279.3999938964843
 46
1.016
 47
1.016
 48
0.1511024287160865
 49
0.2206658756119388
140
10.81453952602389
141
8.330653690245537
142
1.0
143
1.0
 70
 11956
 72
     0
 73
     1
 74
     1
  7
monochrome.stb
 75
    16
147
1.0
148
-6.088001145897523
149
-6.088000998049974
100
AcDbLayout
  1
Model
 70
     1
 71
     0
 10
0.0
 20
0.0
 11
12.0
 21
9.0
 12
0.0
 22
0.0
 32
0.0
 14
0.0
 24
0.0
 34
0.0
 15
0.0
 25
0.0
 35
0.0
146
0.0
 13
0.0
 23
0.0
 33
0.0
 16
1.0
 26
0.0
 36
0.0
 17
0.0
 27
1.0
 37
0.0
 76
     0
330
1E
  0
MLINESTYLE
  5
17
102
{ACAD_REACTORS
330
16
102
}
330
16
100
AcDbMlineStyle
  2
STANDARD
 70
     0
  3

 62
   256
 51
90.0
 52
90.0
 71
     2
 49
0.5
 62
   256
  6
BYLAYER
 49
-0.5
 62
   256
  6
BYLAYER
  0
ACDBPLACEHOLDER
  5
F
102
{ACAD_REACTORS
330
E
102
}
330
E
  0
DICTIONARYVAR
  5
E90
102
{ACAD_REACTORS
330
E8F
102
}
330
E8F
100
DictionaryVariables
280
     0
  1
1
  0
XRECORD
  5
631
102
{ACAD_REACTORS
330
630
102
}
330
630
100
AcDbXrecord
280
     1
  1
$0$
  1
*$0$*
  1
*
  1
*
 70
     0
  1
*
  1
*
  0
XRECORD
  5
632
102
{ACAD_REACTORS
330
630
102
}
330
630
100
AcDbXrecord
280
     1
  1
1
  1
*
  1
*
  1
CENTER2
 70
     0
  1
*
  1
*
  0
XRECORD
  5
633
102
{ACAD_REACTORS
330
630
102
}
330
630
100
AcDbXrecord
280
     1
  1
12
  1
M*
  1
12
  1
*
 70
     0
  1
*
  1
*
  0
XRECORD
  5
634
102
{ACAD_REACTORS
330
630
102
}
330
630
100
AcDbXrecord
280
     1
  1
130
  1
*130*
  1
*
  1
*
 70
     0
  1
*
  1
*
  0
XRECORD
  5
635
102
{ACAD_REACTORS
330
630
102
}
330
630
100
AcDbXrecord
280
     1
  1
147
  1
147
  1
*
  1
*
 70
     0
  1
*
  1
*
  0
XRECORD
  5
636
102
{ACAD_REACTORS
330
630
102
}
330
630
100
AcDbXrecord
280
     1
  1
2
  1
2|*
  1
*
  1
*
 70
     0
  1
*
  1
*
  0
XRECORD
  5
637
102
{ACAD_REACTORS
330
630
102
}
330
630
100
AcDbXrecord
280
     1
  1
214
  1
*
  1
*214*
  1
*
 70
    13
  1
*
  1
*
  0
XRECORD
  5
638
102
{ACAD_REACTORS
330
630
102
}
330
630
100
AcDbXrecord
280
     1
  1
251
  1
*
  1
251
  1
*
 70
     0
  1
*
  1
*
  0
XRECORD
  5
639
102
{ACAD_REACTORS
330
630
102
}
330
630
100
AcDbXrecord
280
     1
  1
253
  1
*
  1
*253*
  1
*
 70
     0
  1
*
  1
*
  0
XRECORD
  5
63A
102
{ACAD_REACTORS
330
630
102
}
330
630
100
AcDbXrecord
280
     1
  1
40
  1
*
  1
*
  1
*
 70
     0
  1
0.40 mm
  1
*
  0
XRECORD
  5
63B
102
{ACAD_REACTORS
330
630
102
}
330
630
100
AcDbXrecord
280
     1
  1
9
  1
*
  1
9
  1
*
 70
     0
  1
*
  1
*
  0
XRECORD
  5
63C
102
{ACAD_REACTORS
330
630
102
}
330
630
100
AcDbXrecord
280
     1
  1
96
  1
*
  1
*
  1
*
 70
     0
  1
*
  1
*
  0
XRECORD
  5
63D
102
{ACAD_REACTORS
330
630
102
}
330
630
100
AcDbXrecord
280
     1
  1
A
  1
*IDEN*
  1
*
  1
*
 70
     0
  1
*
  1
*
  0
XRECORD
  5
63E
102
{ACAD_REACTORS
330
630
102
}
330
630
100
AcDbXrecord
280
     1
  1
a-
  1
a-*
  1
*
  1
*
 70
     0
  1
*
  1
*
  0
XRECORD
  5
63F
102
{ACAD_REACTORS
330
630
102
}
330
630
100
AcDbXrecord
280
     1
  1
ANELLO
  1
*
  1
*
  1
*
 70
     0
  1
*
  1
*
  0
XRECORD
  5
640
102
{ACAD_REACTORS
330
630
102
}
330
630
100
AcDbXrecord
280
     1
  1
ARANCIO
  1
*
  1
*30
  1
*
 70
     0
  1
*
  1
*
  0
XRECORD
  5
641
102
{ACAD_REACTORS
330
630
102
}
330
630
100
AcDbXrecord
280
     1
  1
AREAhatches
  1
a^ *
  1
*
  1
*
 70
     0
  1
*
  1
*
  0
XRECORD
  5
642
102
{ACAD_REACTORS
330
630
102
}
330
630
100
AcDbXrecord
280
     1
  1
ASDF
  1
*IDEN*
  1
*
  1
*
 70
     0
  1
*
  1
*
  0
XRECORD
  5
643
102
{ACAD_REACTORS
330
630
102
}
330
630
100
AcDbXrecord
280
     1
  1
ASSI
  1
*
  1
*
  1
*
 70
     0
  1
*
  1
*
  0
XRECORD
  5
644
102
{ACAD_REACTORS
330
630
102
}
330
630
100
AcDbXrecord
280
     1
  1
bem
  1
*bem*
  1
*
  1
*
 70
     0
  1
*
  1
*
  0
XRECORD
  5
645
102
{ACAD_REACTORS
330
630
102
}
330
630
100
AcDbXrecord
280
     1
  1
BIANCO
  1
*
  1
*7
  1
*
 70
     0
  1
*
  1
*
  0
XRECORD
  5
646
102
{ACAD_REACTORS
330
630
102
}
330
630
100
AcDbXrecord
280
     1
  1
bliglietterie_automatiche
  1
*bigl*
  1
*
  1
*
 70
     0
  1
*
  1
*
  0
XRECORD
  5
647
102
{ACAD_REACTORS
330
630
102
}
330
630
100
AcDbXrecord
280
     1
  1
BLK
  1
*B*
  1
*
  1
*
 70
     0
  1
*
  1
*
  0
XRECORD
  5
648
102
{ACAD_REACTORS
330
630
102
}
330
630
100
AcDbXrecord
280
     1
  1
box
  1
*box*
  1
*
  1
*
 70
     0
  1
*
  1
*
  0
XRECORD
  5
649
102
{ACAD_REACTORS
330
630
102
}
330
630
100
AcDbXrecord
280
     1
  1
BP
  1
*BP*
  1
*
  1
*
 70
     0
  1
*
  1
*
  0
XRECORD
  5
64A
102
{ACAD_REACTORS
330
630
102
}
330
630
100
AcDbXrecord
280
     1
  1
BUB
  1
*GRID*
  1
*
  1
*
 70
     0
  1
*
  1
*
  0
XRECORD
  5
64B
102
{ACAD_REACTORS
330
630
102
}
330
630
100
AcDbXrecord
280
     1
  1
C
  1
*CATCH*
  1
*
  1
*
 70
     0
  1
*
  1
*
  0
XRECORD
  5
64C
102
{ACAD_REACTORS
330
630
102
}
330
630
100
AcDbXrecord
280
     1
  1
C0112
  1
C0112*
  1
*
  1
*
 70
     0
  1
*
  1
*
  0
XRECORD
  5
64D
102
{ACAD_REACTORS
330
630
102
}
330
630
100
AcDbXrecord
280
     1
  1
c_
  1
c_*
  1
*
  1
*
 70
     0
  1
*
  1
*
  0
XRECORD
  5
64E
102
{ACAD_REACTORS
330
630
102
}
330
630
100
AcDbXrecord
280
     1
  1
Calques axes
  1
*axes
  1
*
  1
*
 70
     0
  1
*
  1
*
  0
XRECORD
  5
64F
102
{ACAD_REACTORS
330
630
102
}
330
630
100
AcDbXrecord
280
     1
  1
Calques caches
  1
*caches
  1
*
  1
*
 70
     0
  1
*
  1
*
  0
XRECORD
  5
650
102
{ACAD_REACTORS
330
630
102
}
330
630
100
AcDbXrecord
280
     1
  1
Calques forts
  1
*forts
  1
*
  1
*
 70
     0
  1
*
  1
*
  0
XRECORD
  5
651
102
{ACAD_REACTORS
330
630
102
}
330
630
100
AcDbXrecord
280
     1
  1
camp
  1
*camp*
  1
*
  1
*
 70
     0
  1
*
  1
*
  0
XRECORD
  5
652
102
{ACAD_REACTORS
330
630
102
}
330
630
100
AcDbXrecord
280
     1
  1
CARTA
  1
*
  1
*
  1
*
 70
     0
  1
*
  1
*
  0
XRECORD
  5
653
102
{ACAD_REACTORS
330
630
102
}
330
630
100
AcDbXrecord
280
     1
  1
CASE
  1
*CASE*
  1
*
  1
*
 70
     0
  1
*
  1
*
  0
XRECORD
  5
654
102
{ACAD_REACTORS
330
630
102
}
330
630
100
AcDbXrecord
280
     1
  1
CD
  1
*CDFF*
  1
*
  1
*
 70
     0
  1
*
  1
*
  0
XRECORD
  5
655
102
{ACAD_REACTORS
330
630
102
}
330
630
100
AcDbXrecord
280
     1
  1
CDFF
  1
*CD*
  1
*
  1
*
 70
     0
  1
*
  1
*
  0
XRECORD
  5
656
102
{ACAD_REACTORS
330
630
102
}
330
630
100
AcDbXrecord
280
     1
  1
ce
  1
*ce*
  1
*
  1
*
 70
     0
  1
*
  1
*
  0
XRECORD
  5
657
102
{ACAD_REACTORS
330
630
102
}
330
630
100
AcDbXrecord
280
     1
  1
chframe
  1
*chframe*
  1
*
  1
*
 70
     0
  1
*
  1
*
  0
XRECORD
  5
658
102
{ACAD_REACTORS
330
630
102
}
330
630
100
AcDbXrecord
280
     1
  1
COL
  1
*COL *
  1
*
  1
*
 70
     0
  1
*
  1
*
  0
XRECORD
  5
659
102
{ACAD_REACTORS
330
630
102
}
330
630
100
AcDbXrecord
280
     1
  1
color
  1
*
  1
*
  1
*
 70
     0
  1
*
  1
*
  0
XRECORD
  5
65A
102
{ACAD_REACTORS
330
630
102
}
330
630
100
AcDbXrecord
280
     1
  1
colori
  1
*col*
  1
*
  1
*
 70
     0
  1
*
  1
*
  0
XRECORD
  5
65B
102
{ACAD_REACTORS
330
630
102
}
330
630
100
AcDbXrecord
280
     1
  1
contour
  1
*conto*
  1
*
  1
*
 70
     0
  1
*
  1
*
  0
XRECORD
  5
65C
102
{ACAD_REACTORS
330
630
102
}
330
630
100
AcDbXrecord
280
     1
  1
CYAN
  1
*
  1
*4
  1
*
 70
     0
  1
*
  1
*
  0
XRECORD
  5
65D
102
{ACAD_REACTORS
330
630
102
}
330
630
100
AcDbXrecord
280
     1
  1
D
  1
*DEP*
  1
*
  1
*
 70
     0
  1
*
  1
*
  0
XRECORD
  5
65E
102
{ACAD_REACTORS
330
630
102
}
330
630
100
AcDbXrecord
280
     1
  1
de
  1
d*
  1
*
  1
*
 70
     3
  1
*
  1
*
  0
XRECORD
  5
65F
102
{ACAD_REACTORS
330
630
102
}
330
630
100
AcDbXrecord
280
     1
  1
DEFPOINTS
  1
*DEFPOINTS
  1
*
  1
*
 70
     0
  1
*
  1
*
  0
XRECORD
  5
660
102
{ACAD_REACTORS
330
630
102
}
330
630
100
AcDbXrecord
280
     1
  1
DEMO
  1
*DEMO
  1
*
  1
*
 70
     0
  1
*
  1
*
  0
XRECORD
  5
661
102
{ACAD_REACTORS
330
630
102
}
330
630
100
AcDbXrecord
280
     1
  1
dim
  1
*dim*
  1
*
  1
*
 70
     0
  1
*
  1
*
  0
XRECORD
  5
662
102
{ACAD_REACTORS
330
630
102
}
330
630
100
AcDbXrecord
280
     1
  1
DIMS
  1
*DIMS*
  1
*
  1
*
 70
     0
  1
*
  1
*
  0
XRECORD
  5
663
102
{ACAD_REACTORS
330
630
102
}
330
630
100
AcDbXrecord
280
     1
  1
DR
  1
*DOOR*
  1
*
  1
*
 70
     0
  1
*
  1
*
  0
XRECORD
  5
664
102
{ACAD_REACTORS
330
630
102
}
330
630
100
AcDbXrecord
280
     1
  1
DRAN
  1
*DRAIN*
  1
*
  1
*
 70
     0
  1
*
  1
*
  0
XRECORD
  5
665
102
{ACAD_REACTORS
330
630
102
}
330
630
100
AcDbXrecord
280
     1
  1
DUN
  1
*-X-*,*-S-*,BO*
  1
*
  1
*
 70
     0
  1
*
  1
*
  0
XRECORD
  5
666
102
{ACAD_REACTORS
330
630
102
}
330
630
100
AcDbXrecord
280
     1
  1
E-layers
  1
e-*
  1
*
  1
*
 70
     0
  1
*
  1
*
  0
XRECORD
  5
667
102
{ACAD_REACTORS
330
630
102
}
330
630
100
AcDbXrecord
280
     1
  1
ECW
  1
E|*
  1
*
  1
*
 70
     0
  1
*
  1
*
  0
XRECORD
  5
668
102
{ACAD_REACTORS
330
630
102
}
330
630
100
AcDbXrecord
280
     1
  1
elec
  1
e*
  1
*
  1
*
 70
     0
  1
*
  1
*
  0
XRECORD
  5
669
102
{ACAD_REACTORS
330
630
102
}
330
630
100
AcDbXrecord
280
     1
  1
ETK
  1
etk*
  1
*
  1
*
 70
     0
  1
*
  1
*
  0
XRECORD
  5
66A
102
{ACAD_REACTORS
330
630
102
}
330
630
100
AcDbXrecord
280
     1
  1
excon master$0$
  1
excon master$0$*
  1
*
  1
*
 70
     0
  1
*
  1
*
  0
XRECORD
  5
66B
102
{ACAD_REACTORS
330
630
102
}
330
630
100
AcDbXrecord
280
     1
  1
exist
  1
ex*
  1
*
  1
*
 70
     0
  1
*
  1
*
  0
XRECORD
  5
66C
102
{ACAD_REACTORS
330
630
102
}
330
630
100
AcDbXrecord
280
     1
  1
EXIST CONTOURS
  1
EXIST*
  1
*
  1
*
 70
     0
  1
*
  1
*
  0
XRECORD
  5
66D
102
{ACAD_REACTORS
330
630
102
}
330
630
100
AcDbXrecord
280
     1
  1
F
  1
F-*
  1
*
  1
*
 70
     0
  1
*
  1
*
  0
XRECORD
  5
66E
102
{ACAD_REACTORS
330
630
102
}
330
630
100
AcDbXrecord
280
     1
  1
FENETRE ACTIF
  1
*
  1
*
  1
*
 70
    48
  1
*
  1
*
  0
XRECORD
  5
66F
102
{ACAD_REACTORS
330
630
102
}
330
630
100
AcDbXrecord
280
     1
  1
FGT
  1
*FGCT
  1
*
  1
*
 70
     0
  1
*
  1
*
  0
XRECORD
  5
670
102
{ACAD_REACTORS
330
630
102
}
330
630
100
AcDbXrecord
280
     1
  1
fil1
  1
*
  1
*
  1
*
 70
     0
  1
*
  1
*
  0
XRECORD
  5
671
102
{ACAD_REACTORS
330
630
102
}
330
630
100
AcDbXrecord
280
     1
  1
fior
  1
*fiorie*
  1
*
  1
*
 70
     0
  1
*
  1
*
  0
XRECORD
  5
672
102
{ACAD_REACTORS
330
630
102
}
330
630
100
AcDbXrecord
280
     1
  1
fiorier
  1
*
  1
*
  1
*
 70
     0
  1
*
  1
*
  0
XRECORD
  5
673
102
{ACAD_REACTORS
330
630
102
}
330
630
100
AcDbXrecord
280
     1
  1
fiorire
  1
*fiorr*
  1
*
  1
*
 70
     0
  1
*
  1
*
  0
XRECORD
  5
674
102
{ACAD_REACTORS
330
630
102
}
330
630
100
AcDbXrecord
280
     1
  1
first
  1
s-1st*,0,a100|arch
  1
*
  1
*
 70
     0
  1
*
  1
*
  0
XRECORD
  5
675
102
{ACAD_REACTORS
330
630
102
}
330
630
100
AcDbXrecord
280
     1
  1
FIX
  1
*FIXT*
  1
*
  1
*
 70
     0
  1
*
  1
*
  0
XRECORD
  5
676
102
{ACAD_REACTORS
330
630
102
}
330
630
100
AcDbXrecord
280
     1
  1
FLOOR FIN
  1
*
  1
*
  1
*
 70
    13
  1
*
  1
*
  0
XRECORD
  5
677
102
{ACAD_REACTORS
330
630
102
}
330
630
100
AcDbXrecord
280
     1
  1
fndn
  1
s-fndn*,0,a100|a*
  1
*
  1
*
 70
     0
  1
*
  1
*
  0
XRECORD
  5
678
102
{ACAD_REACTORS
330
630
102
}
330
630
100
AcDbXrecord
280
     1
  1
FOOTPRINT
  1
*
  1
*
  1
*
 70
     0
  1
*
  1
*
  0
XRECORD
  5
679
102
{ACAD_REACTORS
330
630
102
}
330
630
100
AcDbXrecord
280
     1
  1
FR-L
  1
*
  1
*
  1
*
 70
   260
  1
*
  1
*
  0
XRECORD
  5
67A
102
{ACAD_REACTORS
330
630
102
}
330
630
100
AcDbXrecord
280
     1
  1
freccia
  1
*freccia*
  1
*
  1
*
 70
     0
  1
*
  1
*
  0
XRECORD
  5
67B
102
{ACAD_REACTORS
330
630
102
}
330
630
100
AcDbXrecord
280
     1
  1
freccie
  1
*frecc*
  1
*
  1
*
 70
     0
  1
*
  1
*
  0
XRECORD
  5
67C
102
{ACAD_REACTORS
330
630
102
}
330
630
100
AcDbXrecord
280
     1
  1
froz
  1
*
  1
*
  1
*
 70
     0
  1
*
  1
*
  0
XRECORD
  5
67D
102
{ACAD_REACTORS
330
630
102
}
330
630
100
AcDbXrecord
280
     1
  1
frozen
  1
*
  1
*
  1
*
 70
     4
  1
*
  1
*
  0
XRECORD
  5
67E
102
{ACAD_REACTORS
330
630
102
}
330
630
100
AcDbXrecord
280
     1
  1
FRZ
  1
*
  1
*
  1
*
 70
    16
  1
*
  1
*
  0
XRECORD
  5
67F
102
{ACAD_REACTORS
330
630
102
}
330
630
100
AcDbXrecord
280
     1
  1
GEE
  1
G|*
  1
*
  1
*
 70
     0
  1
*
  1
*
  0
XRECORD
  5
680
102
{ACAD_REACTORS
330
630
102
}
330
630
100
AcDbXrecord
280
     1
  1
GIALLO
  1
*
  1
*2
  1
*
 70
     0
  1
*
  1
*
  0
XRECORD
  5
681
102
{ACAD_REACTORS
330
630
102
}
330
630
100
AcDbXrecord
280
     1
  1
GOOKIN 01970 BASE
  1
*01970-ADJ|G_
  1
*
  1
*
 70
    13
  1
*
  1
*
  0
XRECORD
  5
682
102
{ACAD_REACTORS
330
630
102
}
330
630
100
AcDbXrecord
280
     1
  1
grid
  1
*a-grid
  1
*
  1
*
 70
     0
  1
*
  1
*
  0
XRECORD
  5
683
102
{ACAD_REACTORS
330
630
102
}
330
630
100
AcDbXrecord
280
     1
  1
Grossa
  1
* Grossa
  1
*
  1
*
 70
     0
  1
*
  1
*
  0
XRECORD
  5
684
102
{ACAD_REACTORS
330
630
102
}
330
630
100
AcDbXrecord
280
     1
  1
grosse
  1
*g
  1
*
  1
*
 70
     0
  1
*
  1
*
  0
XRECORD
  5
685
102
{ACAD_REACTORS
330
630
102
}
330
630
100
AcDbXrecord
280
     1
  1
HATCH
  1
*H*
  1
*
  1
*
 70
     0
  1
*
  1
*
  0
XRECORD
  5
686
102
{ACAD_REACTORS
330
630
102
}
330
630
100
AcDbXrecord
280
     1
  1
HATCHED
  1
*
  1
*
  1
*
 70
     0
  1
*
  1
*
  0
XRECORD
  5
687
102
{ACAD_REACTORS
330
630
102
}
330
630
100
AcDbXrecord
280
     1
  1
herrajes
  1
*
  1
*
  1
*
 70
    87
  1
*
  1
*
  0
XRECORD
  5
688
102
{ACAD_REACTORS
330
630
102
}
330
630
100
AcDbXrecord
280
     1
  1
HORIZARALBL
  1
*HORIZARALBL
  1
*
  1
*
 70
     0
  1
*
  1
*
  0
XRECORD
  5
689
102
{ACAD_REACTORS
330
630
102
}
330
630
100
AcDbXrecord
280
     1
  1
HTC
  1
*HATCH*
  1
*
  1
*
 70
     0
  1
*
  1
*
  0
XRECORD
  5
68A
102
{ACAD_REACTORS
330
630
102
}
330
630
100
AcDbXrecord
280
     1
  1
HTCH
  1
*-H*
  1
*
  1
*
 70
     0
  1
*
  1
*
  0
XRECORD
  5
68B
102
{ACAD_REACTORS
330
630
102
}
330
630
100
AcDbXrecord
280
     1
  1
INC
  1
*INC*
  1
*
  1
*
 70
     0
  1
*
  1
*
  0
XRECORD
  5
68C
102
{ACAD_REACTORS
330
630
102
}
330
630
100
AcDbXrecord
280
     1
  1
intervento
  1
*inter*
  1
*
  1
*
 70
     0
  1
*
  1
*
  0
XRECORD
  5
68D
102
{ACAD_REACTORS
330
630
102
}
330
630
100
AcDbXrecord
280
     1
  1
JUNK
  1
JUNK*
  1
*
  1
*
 70
     0
  1
*
  1
*
  0
XRECORD
  5
68E
102
{ACAD_REACTORS
330
630
102
}
330
630
100
AcDbXrecord
280
     1
  1
JustOn
  1
*
  1
*
  1
*
 70
     1
  1
*
  1
*
  0
XRECORD
  5
68F
102
{ACAD_REACTORS
330
630
102
}
330
630
100
AcDbXrecord
280
     1
  1
KIM
  1
*
  1
*
  1
*
 70
     0
  1
*
  1
*
  0
XRECORD
  5
690
102
{ACAD_REACTORS
330
630
102
}
330
630
100
AcDbXrecord
280
     1
  1
L
  1
*
  1
*
  1
*
 70
     0
  1
*
  1
*
  0
XRECORD
  5
691
102
{ACAD_REACTORS
330
630
102
}
330
630
100
AcDbXrecord
280
     1
  1
layer_sc_
  1
*sc*
  1
*
  1
*
 70
     0
  1
*
  1
*
  0
XRECORD
  5
692
102
{ACAD_REACTORS
330
630
102
}
330
630
100
AcDbXrecord
280
     1
  1
lbl
  1
*stalbl
  1
*
  1
*
 70
     0
  1
*
  1
*
  0
XRECORD
  5
693
102
{ACAD_REACTORS
330
630
102
}
330
630
100
AcDbXrecord
280
     1
  1
LIBERE
  1
*
  1
*
  1
*
 70
    12
  1
*
  1
*
  0
XRECORD
  5
694
102
{ACAD_REACTORS
330
630
102
}
330
630
100
AcDbXrecord
280
     1
  1
LINEE-TRAT
  1
*
  1
*
  1
*
 70
     0
  1
*
  1
*
  0
XRECORD
  5
695
102
{ACAD_REACTORS
330
630
102
}
330
630
100
AcDbXrecord
280
     1
  1
lll
  1
l-*
  1
*
  1
*
 70
     0
  1
*
  1
*
  0
XRECORD
  5
696
102
{ACAD_REACTORS
330
630
102
}
330
630
100
AcDbXrecord
280
     1
  1
LOCKED
  1
*
  1
*
  1
*
 70
   256
  1
*
  1
*
  0
XRECORD
  5
697
102
{ACAD_REACTORS
330
630
102
}
330
630
100
AcDbXrecord
280
     1
  1
M-
  1
M*
  1
*
  1
*
 70
     0
  1
*
  1
*
  0
XRECORD
  5
698
102
{ACAD_REACTORS
330
630
102
}
330
630
100
AcDbXrecord
280
     1
  1
m53
  1
*m53*
  1
*
  1
*
 70
     0
  1
*
  1
*
  0
XRECORD
  5
699
102
{ACAD_REACTORS
330
630
102
}
330
630
100
AcDbXrecord
280
     1
  1
MAGENTA
  1
*
  1
*6
  1
*
 70
     0
  1
*
  1
*
  0
XRECORD
  5
69A
102
{ACAD_REACTORS
330
630
102
}
330
630
100
AcDbXrecord
280
     1
  1
marc
  1
*marc*
  1
*
  1
*
 70
     0
  1
*
  1
*
  0
XRECORD
  5
69B
102
{ACAD_REACTORS
330
630
102
}
330
630
100
AcDbXrecord
280
     1
  1
mauro1
  1
*
  1
*
  1
*
 70
     0
  1
*
  1
*
  0
XRECORD
  5
69C
102
{ACAD_REACTORS
330
630
102
}
330
630
100
AcDbXrecord
280
     1
  1
mech
  1
*m-hvac*
  1
*
  1
*
 70
     0
  1
*
  1
*
  0
XRECORD
  5
69D
102
{ACAD_REACTORS
330
630
102
}
330
630
100
AcDbXrecord
280
     1
  1
MILL
  1
*
  1
*
  1
*
 70
     0
  1
*
  1
*
  0
XRECORD
  5
69E
102
{ACAD_REACTORS
330
630
102
}
330
630
100
AcDbXrecord
280
     1
  1
mine
  1
0*
  1
*
  1
*
 70
     0
  1
*
  1
*
  0
XRECORD
  5
69F
102
{ACAD_REACTORS
330
630
102
}
330
630
100
AcDbXrecord
280
     1
  1
mq
  1
*mq*
  1
*
  1
*
 70
     0
  1
*
  1
*
  0
XRECORD
  5
6A0
102
{ACAD_REACTORS
330
630
102
}
330
630
100
AcDbXrecord
280
     1
  1
N
  1
*NARI*
  1
*
  1
*
 70
     0
  1
*
  1
*
  0
XRECORD
  5
6A1
102
{ACAD_REACTORS
330
630
102
}
330
630
100
AcDbXrecord
280
     1
  1
NASCOSTO
  1
*
  1
*
  1
*
 70
     0
  1
*
  1
*
  0
XRECORD
  5
6A2
102
{ACAD_REACTORS
330
630
102
}
330
630
100
AcDbXrecord
280
     1
  1
OFF
  1
*
  1
*
  1
*
 70
     4
  1
*
  1
*
  0
XRECORD
  5
6A3
102
{ACAD_REACTORS
330
630
102
}
330
630
100
AcDbXrecord
280
     1
  1
ombre
  1
*ombr*
  1
*
  1
*
 70
     0
  1
*
  1
*
  0
XRECORD
  5
6A4
102
{ACAD_REACTORS
330
630
102
}
330
630
100
AcDbXrecord
280
     1
  1
ON
  1
*x*
  1
*
  1
*
 70
    13
  1
*
  1
*
  0
XRECORD
  5
6A5
102
{ACAD_REACTORS
330
630
102
}
330
630
100
AcDbXrecord
280
     1
  1
OXY-VERDE
  1
*
  1
*3
  1
*
 70
     0
  1
*
  1
*
  0
XRECORD
  5
6A6
102
{ACAD_REACTORS
330
630
102
}
330
630
100
AcDbXrecord
280
     1
  1
P
  1
P-*-96
  1
*
  1
*
 70
     0
  1
*
  1
*
  0
XRECORD
  5
6A7
102
{ACAD_REACTORS
330
630
102
}
330
630
100
AcDbXrecord
280
     1
  1
P-LAYERS
  1
*P-*
  1
*
  1
*
 70
     0
  1
*
  1
*
  0
XRECORD
  5
6A8
102
{ACAD_REACTORS
330
630
102
}
330
630
100
AcDbXrecord
280
     1
  1
P-WALLS
  1
P|*WALL*,P|*GLAZ*,P|*DOOR*
  1
*
  1
*
 70
     0
  1
*
  1
*
  0
XRECORD
  5
6A9
102
{ACAD_REACTORS
330
630
102
}
330
630
100
AcDbXrecord
280
     1
  1
P48
  1
P-*48
  1
*
  1
*
 70
     0
  1
*
  1
*
  0
XRECORD
  5
6AA
102
{ACAD_REACTORS
330
630
102
}
330
630
100
AcDbXrecord
280
     1
  1
P96
  1
P-*96
  1
*
  1
*
 70
     0
  1
*
  1
*
  0
XRECORD
  5
6AB
102
{ACAD_REACTORS
330
630
102
}
330
630
100
AcDbXrecord
280
     1
  1
PAPER
  1
*PAPER*
  1
*
  1
*
 70
     0
  1
*
  1
*
  0
XRECORD
  5
6AC
102
{ACAD_REACTORS
330
630
102
}
330
630
100
AcDbXrecord
280
     1
  1
parcheggio
  1
*parc*
  1
*
  1
*
 70
     0
  1
*
  1
*
  0
XRECORD
  5
6AD
102
{ACAD_REACTORS
330
630
102
}
330
630
100
AcDbXrecord
280
     1
  1
pav
  1
*
  1
*
  1
*
 70
     0
  1
*
  1
*
  0
XRECORD
  5
6AE
102
{ACAD_REACTORS
330
630
102
}
330
630
100
AcDbXrecord
280
     1
  1
PEGC
  1
*PEGC
  1
*
  1
*
 70
     0
  1
*
  1
*
  0
XRECORD
  5
6AF
102
{ACAD_REACTORS
330
630
102
}
330
630
100
AcDbXrecord
280
     1
  1
PEGCT
  1
*PECGT
  1
*
  1
*
 70
     0
  1
*
  1
*
  0
XRECORD
  5
6B0
102
{ACAD_REACTORS
330
630
102
}
330
630
100
AcDbXrecord
280
     1
  1
PGRIDT
  1
*PGRIDT
  1
*
  1
*
 70
     0
  1
*
  1
*
  0
XRECORD
  5
6B1
102
{ACAD_REACTORS
330
630
102
}
330
630
100
AcDbXrecord
280
     1
  1
PIPE
  1
*pipe*
  1
*
  1
*
 70
     0
  1
*
  1
*
  0
XRECORD
  5
6B2
102
{ACAD_REACTORS
330
630
102
}
330
630
100
AcDbXrecord
280
     1
  1
PIT
  1
G|*
  1
*
  1
*
 70
     0
  1
*
  1
*
  0
XRECORD
  5
6B3
102
{ACAD_REACTORS
330
630
102
}
330
630
100
AcDbXrecord
280
     1
  1
PL
  1
P-*
  1
*
  1
*
 70
     0
  1
*
  1
*
  0
XRECORD
  5
6B4
102
{ACAD_REACTORS
330
630
102
}
330
630
100
AcDbXrecord
280
     1
  1
plan
  1
*plan*
  1
*
  1
*
 70
     0
  1
*
  1
*
  0
XRECORD
  5
6B5
102
{ACAD_REACTORS
330
630
102
}
330
630
100
AcDbXrecord
280
     1
  1
PLATFM
  1
*S-COL-PLATFM
  1
*
  1
*
 70
     0
  1
*
  1
*
  0
XRECORD
  5
6B6
102
{ACAD_REACTORS
330
630
102
}
330
630
100
AcDbXrecord
280
     1
  1
PLMG
  1
P-*
  1
*
  1
*
 70
     0
  1
*
  1
*
  0
XRECORD
  5
6B7
102
{ACAD_REACTORS
330
630
102
}
330
630
100
AcDbXrecord
280
     1
  1
PLUMB
  1
P-*
  1
*
  1
*
 70
     0
  1
*
  1
*
  0
XRECORD
  5
6B8
102
{ACAD_REACTORS
330
630
102
}
330
630
100
AcDbXrecord
280
     1
  1
PPIPE
  1
P-*PIPE*
  1
*
  1
*
 70
     0
  1
*
  1
*
  0
XRECORD
  5
6B9
102
{ACAD_REACTORS
330
630
102
}
330
630
100
AcDbXrecord
280
     1
  1
primo
  1
bollini
  1
*
  1
*
 70
     0
  1
*
  1
*
  0
XRECORD
  5
6BA
102
{ACAD_REACTORS
330
630
102
}
330
630
100
AcDbXrecord
280
     1
  1
PRISR
  1
P-*RISR*
  1
*
  1
*
 70
     0
  1
*
  1
*
  0
XRECORD
  5
6BB
102
{ACAD_REACTORS
330
630
102
}
330
630
100
AcDbXrecord
280
     1
  1
proiez
  1
*proiez*
  1
*
  1
*
 70
     0
  1
*
  1
*
  0
XRECORD
  5
6BC
102
{ACAD_REACTORS
330
630
102
}
330
630
100
AcDbXrecord
280
     1
  1
RAIL
  1
*HRAL*
  1
*
  1
*
 70
     0
  1
*
  1
*
  0
XRECORD
  5
6BD
102
{ACAD_REACTORS
330
630
102
}
330
630
100
AcDbXrecord
280
     1
  1
RCP
  1
*RCP*
  1
*
  1
*
 70
     0
  1
*
  1
*
  0
XRECORD
  5
6BE
102
{ACAD_REACTORS
330
630
102
}
330
630
100
AcDbXrecord
280
     1
  1
rd
  1
rd*
  1
*
  1
*
 70
     0
  1
*
  1
*
  0
XRECORD
  5
6BF
102
{ACAD_REACTORS
330
630
102
}
330
630
100
AcDbXrecord
280
     1
  1
RED
  1
*
  1
1
  1
*
 70
    12
  1
*
  1
*
  0
XRECORD
  5
6C0
102
{ACAD_REACTORS
330
630
102
}
330
630
100
AcDbXrecord
280
     1
  1
RISR
  1
P-*RISR
  1
*
  1
*
 70
     0
  1
*
  1
*
  0
XRECORD
  5
6C1
102
{ACAD_REACTORS
330
630
102
}
330
630
100
AcDbXrecord
280
     1
  1
roof
  1
*roof*
  1
*
  1
*
 70
     0
  1
*
  1
*
  0
XRECORD
  5
6C2
102
{ACAD_REACTORS
330
630
102
}
330
630
100
AcDbXrecord
280
     1
  1
ROSSO
  1
*
  1
RED
  1
*
 70
     0
  1
*
  1
*
  0
XRECORD
  5
6C3
102
{ACAD_REACTORS
330
630
102
}
330
630
100
AcDbXrecord
280
     1
  1
ROTAIA
  1
*
  1
*
  1
*
 70
     0
  1
*
  1
*
  0
XRECORD
  5
6C4
102
{ACAD_REACTORS
330
630
102
}
330
630
100
AcDbXrecord
280
     1
  1
RR_SWITCH
  1
*
  1
*
  1
*
 70
     0
  1
*
  1
*
  0
XRECORD
  5
6C5
102
{ACAD_REACTORS
330
630
102
}
330
630
100
AcDbXrecord
280
     1
  1
sc
  1
*sc*
  1
*
  1
*
 70
     0
  1
*
  1
*
  0
XRECORD
  5
6C6
102
{ACAD_REACTORS
330
630
102
}
330
630
100
AcDbXrecord
280
     1
  1
scalehidden
  1
*scale*
  1
*
  1
*
 70
     0
  1
*
  1
*
  0
XRECORD
  5
6C7
102
{ACAD_REACTORS
330
630
102
}
330
630
100
AcDbXrecord
280
     1
  1
SH
  1
*SHE*
  1
*
  1
*
 70
     0
  1
*
  1
*
  0
XRECORD
  5
6C8
102
{ACAD_REACTORS
330
630
102
}
330
630
100
AcDbXrecord
280
     1
  1
Sottile
  1
* Sottile
  1
*
  1
*
 70
     0
  1
*
  1
*
  0
XRECORD
  5
6C9
102
{ACAD_REACTORS
330
630
102
}
330
630
100
AcDbXrecord
280
     1
  1
sottili
  1
*s
  1
*
  1
*
 70
     0
  1
*
  1
*
  0
XRECORD
  5
6CA
102
{ACAD_REACTORS
330
630
102
}
330
630
100
AcDbXrecord
280
     1
  1
SPENTI
  1
*
  1
*
  1
*
 70
     3
  1
*
  1
*
  0
XRECORD
  5
6CB
102
{ACAD_REACTORS
330
630
102
}
330
630
100
AcDbXrecord
280
     1
  1
STAPTS
  1
*STAPTS
  1
*
  1
*
 70
     0
  1
*
  1
*
  0
XRECORD
  5
6CC
102
{ACAD_REACTORS
330
630
102
}
330
630
100
AcDbXrecord
280
     1
  1
strade
  1
*strade*
  1
*
  1
*
 70
     0
  1
*
  1
*
  0
XRECORD
  5
6CD
102
{ACAD_REACTORS
330
630
102
}
330
630
100
AcDbXrecord
280
     1
  1
struct
  1
s-*
  1
*
  1
*
 70
     0
  1
*
  1
*
  0
XRECORD
  5
6CE
102
{ACAD_REACTORS
330
630
102
}
330
630
100
AcDbXrecord
280
     1
  1
SUR
  1
*SUR*
  1
*
  1
*
 70
     0
  1
*
  1
*
  0
XRECORD
  5
6CF
102
{ACAD_REACTORS
330
630
102
}
330
630
100
AcDbXrecord
280
     1
  1
temp
  1
*
  1
*
  1
*
 70
     7
  1
*
  1
*
  0
XRECORD
  5
6D0
102
{ACAD_REACTORS
330
630
102
}
330
630
100
AcDbXrecord
280
     1
  1
test
  1
*
  1
*
  1
*
 70
    13
  1
*
  1
*
  0
XRECORD
  5
6D1
102
{ACAD_REACTORS
330
630
102
}
330
630
100
AcDbXrecord
280
     1
  1
testi
  1
*test*
  1
*
  1
*
 70
     0
  1
*
  1
*
  0
XRECORD
  5
6D2
102
{ACAD_REACTORS
330
630
102
}
330
630
100
AcDbXrecord
280
     1
  1
transito
  1
*trans*
  1
*
  1
*
 70
     0
  1
*
  1
*
  0
XRECORD
  5
6D3
102
{ACAD_REACTORS
330
630
102
}
330
630
100
AcDbXrecord
280
     1
  1
tratt
  1
*tratt*
  1
*
  1
*
 70
     0
  1
*
  1
*
  0
XRECORD
  5
6D4
102
{ACAD_REACTORS
330
630
102
}
330
630
100
AcDbXrecord
280
     1
  1
trattegg
  1
*
  1
*
  1
*
 70
     0
  1
*
  1
*
  0
XRECORD
  5
6D5
102
{ACAD_REACTORS
330
630
102
}
330
630
100
AcDbXrecord
280
     1
  1
tratteggiate
  1
*d
  1
*
  1
*
 70
     0
  1
*
  1
*
  0
XRECORD
  5
6D6
102
{ACAD_REACTORS
330
630
102
}
330
630
100
AcDbXrecord
280
     1
  1
TRATTEGGIO
  1
*
  1
*
  1
*
 70
     0
  1
*
  1
*
  0
XRECORD
  5
6D7
102
{ACAD_REACTORS
330
630
102
}
330
630
100
AcDbXrecord
280
     1
  1
Tratti
  1
* Tratti
  1
*
  1
*
 70
     0
  1
*
  1
*
  0
XRECORD
  5
6D8
102
{ACAD_REACTORS
330
630
102
}
330
630
100
AcDbXrecord
280
     1
  1
TWO
  1
2|*
  1
*
  1
*
 70
     0
  1
*
  1
*
  0
XRECORD
  5
6D9
102
{ACAD_REACTORS
330
630
102
}
330
630
100
AcDbXrecord
280
     1
  1
TX
  1
F*TEXT*
  1
*
  1
*
 70
     0
  1
*
  1
*
  0
XRECORD
  5
6DA
102
{ACAD_REACTORS
330
630
102
}
330
630
100
AcDbXrecord
280
     1
  1
TXT
  1
P-*TEXT*
  1
*
  1
*
 70
     0
  1
*
  1
*
  0
XRECORD
  5
6DB
102
{ACAD_REACTORS
330
630
102
}
330
630
100
AcDbXrecord
280
     1
  1
U-POLE
  1
*
  1
*
  1
*
 70
     0
  1
*
  1
*
  0
XRECORD
  5
6DC
102
{ACAD_REACTORS
330
630
102
}
330
630
100
AcDbXrecord
280
     1
  1
UL
  1
*
  1
*7*
  1
*
 70
    13
  1
*
  1
*
  0
XRECORD
  5
6DD
102
{ACAD_REACTORS
330
630
102
}
330
630
100
AcDbXrecord
280
     1
  1
upole
  1
*
  1
*
  1
*
 70
     0
  1
*
  1
*
  0
XRECORD
  5
6DE
102
{ACAD_REACTORS
330
630
102
}
330
630
100
AcDbXrecord
280
     1
  1
V
  1
*VENT*
  1
*
  1
*
 70
     0
  1
*
  1
*
  0
XRECORD
  5
6DF
102
{ACAD_REACTORS
330
630
102
}
330
630
100
AcDbXrecord
280
     1
  1
vetrate
  1
*vetr*
  1
*
  1
*
 70
     0
  1
*
  1
*
  0
XRECORD
  5
6E0
102
{ACAD_REACTORS
330
630
102
}
330
630
100
AcDbXrecord
280
     1
  1
WALL
  1
*WAL*
  1
*
  1
*
 70
     0
  1
*
  1
*
  0
XRECORD
  5
6E1
102
{ACAD_REACTORS
330
630
102
}
330
630
100
AcDbXrecord
280
     1
  1
WALLS
  1
*WALL*
  1
*
  1
*
 70
     0
  1
*
  1
*
  0
XRECORD
  5
6E2
102
{ACAD_REACTORS
330
630
102
}
330
630
100
AcDbXrecord
280
     1
  1
WIN
  1
*WIN*
  1
*
  1
*
 70
     0
  1
*
  1
*
  0
XRECORD
  5
6E3
102
{ACAD_REACTORS
330
630
102
}
330
630
100
AcDbXrecord
280
     1
  1
X
  1
*st*
  1
*
  1
*
 70
     0
  1
*
  1
*
  0
XRECORD
  5
6E4
102
{ACAD_REACTORS
330
630
102
}
330
630
100
AcDbXrecord
280
     1
  1
XESITE
  1
XESITE*
  1
*
  1
*
 70
     0
  1
*
  1
*
  0
XRECORD
  5
6E5
102
{ACAD_REACTORS
330
630
102
}
330
630
100
AcDbXrecord
280
     1
  1
XREF
  1
*XREF*
  1
*
  1
*
 70
     0
  1
*
  1
*
  0
XRECORD
  5
6E6
102
{ACAD_REACTORS
330
630
102
}
330
630
100
AcDbXrecord
280
     1
  1
XS
  1
*XS*
  1
*
  1
*
 70
     0
  1
*
  1
*
  0
XRECORD
  5
6E7
102
{ACAD_REACTORS
330
630
102
}
330
630
100
AcDbXrecord
280
     1
  1
xsect
  1
xsect*
  1
*
  1
*
 70
     0
  1
*
  1
*
  0
XRECORD
  5
6E8
102
{ACAD_REACTORS
330
630
102
}
330
630
100
AcDbXrecord
280
     1
  1
Y
  1
Y|*
  1
*
  1
*
 70
     0
  1
*
  1
*
  0
XRECORD
  5
6E9
102
{ACAD_REACTORS
330
630
102
}
330
630
100
AcDbXrecord
280
     1
  1
Z
  1
Z|*
  1
*
  1
*
 70
     0
  1
*
  1
*
  0
ENDSEC
  0
EOF
