  0
SECTION
  2
HEADER
  9
$ACADVER
  1
AC1015
  9
$ACADMAINTVER
 70
    10
  9
$DWGCODEPAGE
  3
ANSI_1252
  9
$INSBASE
 10
0.0
 20
0.0
 30
0.0
  9
$EXTMIN
 10
0.2396850844841545
 20
0.2396850786633848
 30
-0.0015258207003583
  9
$EXTMAX
 10
10.76031496673859
 20
8.260314960917824
 30
0.0000000349246037
  9
$LIMMIN
 10
0.0
 20
0.0
  9
$LIMMAX
 10
11.0
 20
8.5
  9
$ORTHOMODE
 70
     1
  9
$REGENMODE
 70
     1
  9
$FILLMODE
 70
     1
  9
$QTEXTMODE
 70
     0
  9
$MIRRTEXT
 70
     1
  9
$LTSCALE
 40
0.5
  9
$ATTMODE
 70
     1
  9
$TEXTSIZE
 40
0.1
  9
$TRACEWID
 40
0.05
  9
$TEXTSTYLE
  7
ROMAND
  9
$CLAYER
  8
0
  9
$CELTYPE
  6
ByLayer
  9
$CECOLOR
 62
   256
  9
$CELTSCALE
 40
1.0
  9
$DISPSILH
 70
     0
  9
$DIMSCALE
 40
1.0
  9
$DIMASZ
 40
0.18
  9
$DIMEXO
 40
0.06
  9
$DIMDLI
 40
0.25
  9
$DIMRND
 40
0.0
  9
$DIMDLE
 40
0.0
  9
$DIMEXE
 40
0.06
  9
$DIMTP
 40
0.0
  9
$DIMTM
 40
0.0
  9
$DIMTXT
 40
0.1
  9
$DIMCEN
 40
0.06
  9
$DIMTSZ
 40
0.0
  9
$DIMTOL
 70
     0
  9
$DIMLIM
 70
     0
  9
$DIMTIH
 70
     0
  9
$DIMTOH
 70
     0
  9
$DIMSE1
 70
     0
  9
$DIMSE2
 70
     0
  9
$DIMTAD
 70
     0
  9
$DIMZIN
 70
     0
  9
$DIMBLK
  1

  9
$DIMASO
 70
     1
  9
$DIMSHO
 70
     0
  9
$DIMPOST
  1

  9
$DIMAPOST
  1

  9
$DIMALT
 70
     0
  9
$DIMALTD
 70
     2
  9
$DIMALTF
 40
25.4
  9
$DIMLFAC
 40
1.0
  9
$DIMTOFL
 70
     0
  9
$DIMTVP
 40
0.0
  9
$DIMTIX
 70
     0
  9
$DIMSOXD
 70
     0
  9
$DIMSAH
 70
     0
  9
$DIMBLK1
  1

  9
$DIMBLK2
  1

  9
$DIMSTYLE
  2
Standard
  9
$DIMCLRD
 70
     0
  9
$DIMCLRE
 70
     0
  9
$DIMCLRT
 70
     0
  9
$DIMTFAC
 40
1.0
  9
$DIMGAP
 40
0.06
  9
$DIMJUST
 70
     0
  9
$DIMSD1
 70
     0
  9
$DIMSD2
 70
     0
  9
$DIMTOLJ
 70
     1
  9
$DIMTZIN
 70
     0
  9
$DIMALTZ
 70
     0
  9
$DIMALTTZ
 70
     0
  9
$DIMUPT
 70
     0
  9
$DIMDEC
 70
     3
  9
$DIMTDEC
 70
     3
  9
$DIMALTU
 70
     2
  9
$DIMALTTD
 70
     2
  9
$DIMTXSTY
  7
ROMAND
  9
$DIMAUNIT
 70
     0
  9
$DIMADEC
 70
     0
  9
$DIMALTRND
 40
0.0
  9
$DIMAZIN
 70
     0
  9
$DIMDSEP
 70
    46
  9
$DIMATFIT
 70
     3
  9
$DIMFRAC
 70
     0
  9
$DIMLDRBLK
  1

  9
$DIMLUNIT
 70
     2
  9
$DIMLWD
 70
    -2
  9
$DIMLWE
 70
    -2
  9
$DIMTMOVE
 70
     0
  9
$LUNITS
 70
     2
  9
$LUPREC
 70
     3
  9
$SKETCHINC
 40
0.1
  9
$FILLETRAD
 40
0.045
  9
$AUNITS
 70
     0
  9
$AUPREC
 70
     0
  9
$MENU
  1
acad
  9
$ELEVATION
 40
0.0
  9
$PELEVATION
 40
0.0
  9
$THICKNESS
 40
0.0
  9
$LIMCHECK
 70
     0
  9
$CHAMFERA
 40
0.0
  9
$CHAMFERB
 40
0.0
  9
$CHAMFERC
 40
0.0
  9
$CHAMFERD
 40
0.0
  9
$SKPOLY
 70
     0
  9
$TDCREATE
 40
2453549.466357870
  9
$TDUCREATE
 40
2453549.674691203
  9
$TDUPDATE
 40
2458493.357642858
  9
$TDUUPDATE
 40
2458493.565976192
  9
$TDINDWG
 40
0.1618476620
  9
$TDUSRTIMER
 40
0.1618476620
  9
$USRTIMER
 70
     1
  9
$ANGBASE
 50
0.0
  9
$ANGDIR
 70
     0
  9
$PDMODE
 70
     0
  9
$PDSIZE
 40
0.0
  9
$PLINEWID
 40
0.1
  9
$SPLFRAME
 70
     0
  9
$SPLINETYPE
 70
     6
  9
$SPLINESEGS
 70
     8
  9
$HANDSEED
  5
3249
  9
$SURFTAB1
 70
     6
  9
$SURFTAB2
 70
     6
  9
$SURFTYPE
 70
     6
  9
$SURFU
 70
     6
  9
$SURFV
 70
     6
  9
$UCSBASE
  2

  9
$UCSNAME
  2

  9
$UCSORG
 10
0.0
 20
0.0
 30
0.0
  9
$UCSXDIR
 10
1.0
 20
0.0
 30
0.0
  9
$UCSYDIR
 10
0.0
 20
1.0
 30
0.0
  9
$UCSORTHOREF
  2

  9
$UCSORTHOVIEW
 70
     0
  9
$UCSORGTOP
 10
0.0
 20
0.0
 30
0.0
  9
$UCSORGBOTTOM
 10
0.0
 20
0.0
 30
0.0
  9
$UCSORGLEFT
 10
0.0
 20
0.0
 30
0.0
  9
$UCSORGRIGHT
 10
0.0
 20
0.0
 30
0.0
  9
$UCSORGFRONT
 10
0.0
 20
0.0
 30
0.0
  9
$UCSORGBACK
 10
0.0
 20
0.0
 30
0.0
  9
$PUCSBASE
  2

  9
$PUCSNAME
  2

  9
$PUCSORG
 10
0.0
 20
0.0
 30
0.0
  9
$PUCSXDIR
 10
1.0
 20
0.0
 30
0.0
  9
$PUCSYDIR
 10
0.0
 20
1.0
 30
0.0
  9
$PUCSORTHOREF
  2

  9
$PUCSORTHOVIEW
 70
     0
  9
$PUCSORGTOP
 10
0.0
 20
0.0
 30
0.0
  9
$PUCSORGBOTTOM
 10
0.0
 20
0.0
 30
0.0
  9
$PUCSORGLEFT
 10
0.0
 20
0.0
 30
0.0
  9
$PUCSORGRIGHT
 10
0.0
 20
0.0
 30
0.0
  9
$PUCSORGFRONT
 10
0.0
 20
0.0
 30
0.0
  9
$PUCSORGBACK
 10
0.0
 20
0.0
 30
0.0
  9
$USERI1
 70
     0
  9
$USERI2
 70
     0
  9
$USERI3
 70
     0
  9
$USERI4
 70
     0
  9
$USERI5
 70
     0
  9
$USERR1
 40
0.0
  9
$USERR2
 40
0.0
  9
$USERR3
 40
0.0
  9
$USERR4
 40
0.0
  9
$USERR5
 40
0.0
  9
$WORLDVIEW
 70
     1
  9
$SHADEDGE
 70
     3
  9
$SHADEDIF
 70
    70
  9
$TILEMODE
 70
     1
  9
$MAXACTVP
 70
    16
  9
$PINSBASE
 10
0.0
 20
0.0
 30
0.0
  9
$PLIMCHECK
 70
     0
  9
$PEXTMIN
 10
1.000000000000000E+20
 20
1.000000000000000E+20
 30
1.000000000000000E+20
  9
$PEXTMAX
 10
-1.000000000000000E+20
 20
-1.000000000000000E+20
 30
-1.000000000000000E+20
  9
$PLIMMIN
 10
-0.1249995194082185
 20
-0.1249999981226883
  9
$PLIMMAX
 10
10.87500024029589
 20
8.375000362321149
  9
$UNITMODE
 70
     0
  9
$VISRETAIN
 70
     0
  9
$PLINEGEN
 70
     1
  9
$PSLTSCALE
 70
     1
  9
$TREEDEPTH
 70
  3020
  9
$CMLSTYLE
  2
Standard
  9
$CMLJUST
 70
     0
  9
$CMLSCALE
 40
1.0
  9
$PROXYGRAPHICS
 70
     1
  9
$MEASUREMENT
 70
     0
  9
$CELWEIGHT
370
    -1
  9
$ENDCAPS
280
     0
  9
$JOINSTYLE
280
     0
  9
$LWDISPLAY
290
     0
  9
$INSUNITS
 70
     0
  9
$HYPERLINKBASE
  1

  9
$STYLESHEET
  1
monochrome.stb
  9
$XEDIT
290
     1
  9
$CEPSNTYPE
380
     2
  9
$PSTYLEMODE
290
     0
  9
$FINGERPRINTGUID
  2
{FD40C69E-115F-44C5-8F58-837690828DCB}
  9
$VERSIONGUID
  2
{048FCA33-FD35-4F1E-BB19-DB3835CCB8A4}
  9
$EXTNAMES
290
     1
  9
$PSVPSCALE
 40
0.0
  9
$OLESTARTUP
290
     0
  0
ENDSEC
  0
SECTION
  2
CLASSES
  0
CLASS
  1
ACDBDICTIONARYWDFLT
  2
AcDbDictionaryWithDefault
  3
AutoCAD 2000
 90
        0
280
     0
281
     0
  0
CLASS
  1
ACDBPLACEHOLDER
  2
AcDbPlaceHolder
  3
AutoCAD 2000
 90
        0
280
     0
281
     0
  0
CLASS
  1
LAYOUT
  2
AcDbLayout
  3
AutoCAD 2000
 90
        0
280
     0
281
     0
  0
CLASS
  1
DICTIONARYVAR
  2
AcDbDictionaryVar
  3
AutoCAD 2000
 90
        0
280
     0
281
     0
  0
ENDSEC
  0
SECTION
  2
TABLES
  0
TABLE
  2
VPORT
  5
8
330
0
100
AcDbSymbolTable
 70
     2
  0
VPORT
  5
3248
330
8
100
AcDbSymbolTableRecord
100
AcDbViewportTableRecord
  2
*Active
 70
     0
 10
0.0
 20
0.0
 11
1.0
 21
1.0
 12
5.499999999999998
 22
4.25
 13
0.0
 23
0.0
 14
0.025
 24
0.025
 15
0.5
 25
0.5
 16
0.0
 26
0.0
 36
1.0
 17
0.0
 27
0.0
 37
0.0
 40
8.558352402745995
 41
2.144329896907216
 42
50.0
 43
0.0
 44
0.0
 50
0.0
 51
0.0
 71
     0
 72
   100
 73
     1
 74
     0
 75
     1
 76
     0
 77
     0
 78
     0
281
     0
 65
     1
110
0.0
120
0.0
130
0.0
111
1.0
121
0.0
131
0.0
112
0.0
122
1.0
132
0.0
 79
     0
146
0.0
  0
ENDTAB
  0
TABLE
  2
LTYPE
  5
5
330
0
100
AcDbSymbolTable
 70
     3
  0
LTYPE
  5
13
330
5
100
AcDbSymbolTableRecord
100
AcDbLinetypeTableRecord
  2
ByBlock
 70
     0
  3

 72
    65
 73
     0
 40
0.0
  0
LTYPE
  5
14
330
5
100
AcDbSymbolTableRecord
100
AcDbLinetypeTableRecord
  2
ByLayer
 70
     0
  3

 72
    65
 73
     0
 40
0.0
  0
LTYPE
  5
15
330
5
100
AcDbSymbolTableRecord
100
AcDbLinetypeTableRecord
  2
CONTINUOUS
 70
     0
  3
Solid line
 72
    65
 73
     0
 40
0.0
  0
LTYPE
  5
4AC
330
5
100
AcDbSymbolTableRecord
100
AcDbLinetypeTableRecord
  2
DASHED
 70
     0
  3
__ __ __ __ __ __ __ __ __ __ __ __ __ __ __
 72
    65
 73
     2
 40
0.75
 49
0.5
 74
     0
 49
-0.25
 74
     0
  0
LTYPE
  5
703
330
5
100
AcDbSymbolTableRecord
100
AcDbLinetypeTableRecord
  2
HIDDEN
 70
     0
  3
_ _ _ _ _ _ _ _ _ _ _ _ _ _ _ _ _ _ _ _ _ _ _
 72
    65
 73
     2
 40
0.375
 49
0.25
 74
     0
 49
-0.125
 74
     0
  0
ENDTAB
  0
TABLE
  2
LAYER
  5
2
102
{ACAD_XDICTIONARY
360
62F
102
}
330
0
100
AcDbSymbolTable
 70
     4
  0
LAYER
  5
10
330
2
100
AcDbSymbolTableRecord
100
AcDbLayerTableRecord
  2
0
 70
     0
 62
     7
  6
CONTINUOUS
370
    -3
390
F
  0
LAYER
  5
705
102
{ACAD_XDICTIONARY
360
706
102
}
330
2
100
AcDbSymbolTableRecord
100
AcDbLayerTableRecord
  2
Current
 70
     0
 62
     1
  6
CONTINUOUS
370
    -3
390
F
  0
LAYER
  5
708
102
{ACAD_XDICTIONARY
360
709
102
}
330
2
100
AcDbSymbolTableRecord
100
AcDbLayerTableRecord
  2
Emergency
 70
     0
 62
     5
  6
HIDDEN
370
    -3
390
F
  0
LAYER
  5
16BC
102
{ACAD_XDICTIONARY
360
16BD
102
}
330
2
100
AcDbSymbolTableRecord
100
AcDbLayerTableRecord
  2
Dimensions
 70
     0
 62
     1
  6
CONTINUOUS
370
    -3
390
F
  0
ENDTAB
  0
TABLE
  2
STYLE
  5
3
330
0
100
AcDbSymbolTable
 70
     2
  0
STYLE
  5
11
330
3
100
AcDbSymbolTableRecord
100
AcDbTextStyleTableRecord
  2
STANDARD
 70
     0
 40
0.0
 41
1.0
 50
0.0
 71
     0
 42
0.1
  3
romans.shx
  4

  0
STYLE
  5
51
330
3
100
AcDbSymbolTableRecord
100
AcDbTextStyleTableRecord
  2
ROMAND
 70
     0
 40
0.0
 41
1.0
 50
0.0
 71
     0
 42
0.1
  3
romand
  4

  0
ENDTAB
  0
TABLE
  2
VIEW
  5
6
330
0
100
AcDbSymbolTable
 70
     0
  0
ENDTAB
  0
TABLE
  2
UCS
  5
7
330
0
100
AcDbSymbolTable
 70
     0
  0
ENDTAB
  0
TABLE
  2
APPID
  5
9
330
0
100
AcDbSymbolTable
 70
     1
  0
APPID
  5
12
330
9
100
AcDbSymbolTableRecord
100
AcDbRegAppTableRecord
  2
ACAD
 70
     0
  0
ENDTAB
  0
TABLE
  2
DIMSTYLE
  5
A
330
0
100
AcDbSymbolTable
 70
     1
100
AcDbDimStyleTable
 71
     1
340
3D7
  0
DIMSTYLE
105
3D7
330
A
100
AcDbSymbolTableRecord
100
AcDbDimStyleTableRecord
  2
Standard
 70
     0
340
11
  0
ENDTAB
  0
TABLE
  2
BLOCK_RECORD
  5
1
330
0
100
AcDbSymbolTable
 70
     2
  0
BLOCK_RECORD
  5
1E
330
1
100
AcDbSymbolTableRecord
100
AcDbBlockTableRecord
  2
*Model_Space
340
21
  0
BLOCK_RECORD
  5
49A
330
1
100
AcDbSymbolTableRecord
100
AcDbBlockTableRecord
  2
*Paper_Space
340
49B
  0
BLOCK_RECORD
  5
1024
330
1
100
AcDbSymbolTableRecord
100
AcDbBlockTableRecord
  2
NEWLOGO
340
0
310
2800000020000000200000000100080000000000000400000000000000000000000000000000000000000000000080000080000000808000800000008000800080800000C0C0C000C0DCC000F0CAA6000020400000206000002080000020A0000020C0000020E00000400000004020000040400000406000004080000040A0
310
000040C0000040E00000600000006020000060400000606000006080000060A0000060C0000060E00000800000008020000080400000806000008080000080A0000080C0000080E00000A0000000A0200000A0400000A0600000A0800000A0A00000A0C00000A0E00000C0000000C0200000C0400000C0600000C0800000C0
310
A00000C0C00000C0E00000E0000000E0200000E0400000E0600000E0800000E0A00000E0C00000E0E00040000000400020004000400040006000400080004000A0004000C0004000E00040200000402020004020400040206000402080004020A0004020C0004020E000404000004040200040404000404060004040800040
310
40A0004040C0004040E00040600000406020004060400040606000406080004060A0004060C0004060E00040800000408020004080400040806000408080004080A0004080C0004080E00040A0000040A0200040A0400040A0600040A0800040A0A00040A0C00040A0E00040C0000040C0200040C0400040C0600040C08000
310
40C0A00040C0C00040C0E00040E0000040E0200040E0400040E0600040E0800040E0A00040E0C00040E0E00080000000800020008000400080006000800080008000A0008000C0008000E00080200000802020008020400080206000802080008020A0008020C0008020E00080400000804020008040400080406000804080
310
008040A0008040C0008040E00080600000806020008060400080606000806080008060A0008060C0008060E00080800000808020008080400080806000808080008080A0008080C0008080E00080A0000080A0200080A0400080A0600080A0800080A0A00080A0C00080A0E00080C0000080C0200080C0400080C0600080C0
310
800080C0A00080C0C00080C0E00080E0000080E0200080E0400080E0600080E0800080E0A00080E0C00080E0E000C0000000C0002000C0004000C0006000C0008000C000A000C000C000C000E000C0200000C0202000C0204000C0206000C0208000C020A000C020C000C020E000C0400000C0402000C0404000C0406000C0
310
408000C040A000C040C000C040E000C0600000C0602000C0604000C0606000C0608000C060A000C060C000C060E000C0800000C0802000C0804000C0806000C0808000C080A000C080C000C080E000C0A00000C0A02000C0A04000C0A06000C0A08000C0A0A000C0A0C000C0A0E000C0C00000C0C02000C0C04000C0C06000
310
C0C08000C0C0A000F0FBFF00A4A0A000808080000000FF0000FF000000FFFF00FF000000FF00FF00FFFF0000FFFFFF00FFFFFFFFFFFFFFFFFFFFFFFFFFFFFFFFFFFFFFFFFFFFFFFFFFFFFFFFFFFFFFFFFFFFFFFFFFFFFFFFFFFFFFFFFFFFFFFFFFFFFFFFFFFFFFFFFFFFFFFFFFFFFFFFFFFFFFFFFFFFFFFFFFFFFFFFFFFFFF
310
FFFFFFFFFFFFFFFFFFFFFFFFFFFFFFFFFFFFFFFFFFFFFFFFFFFFFFFFFFFFFFFFFFFFFFFFFFFFFFFFFFFFFFFFFFFFFFFFFFFFFFFFFFFFFFFFFFFFFFFFFFFFFFFFFFFFFFFFFFFFFFFFFFFFFFFFFFFFFFFFFFFFFFFFFFFFFFFFFFFFFFFFFFFFFFFFFFFFFFFFFFFFFFFFFFFFFFFFFFFFFFFFFFFFFFFFFFFFFFFFFFFFFFFFFFFFFF
310
FFFFFFFFFFFFFFFFFFFFFFFFFFFFFFFFFFFFFFFFFFFFFFFFFFFFFFFFFFFFFFFFFFFFFFFFFFFFFFFFFFFFFFFFFFFFFFFFFFFFFFFFFFFFFFFFFFFFFFFFFFFFFFFFFFFFFFFFFFFFFFFFFFFFFFFFFFFFFFFFFFFFFFFFFFFFFFFFFFFFFFFFFFFFFFFFFFFFFFFFFFFFFFFFFFFFFFFFFFFFFFFFFFFFFFFFFFFFFFFFFFFFFFFFFFFFFF
310
FFFFFFFFFFFFFFFFFFFFFFFFFFFFFFFFFFFFFFFFFFFFFFFFFFFFFFFFFFFFFFFFFFFFFFFFFFFFFFFFFFFFFFFFFFFFFFFFFFFFFFFFFF00000000000000000000000000000000000000000000FFFFFFFFFFFFFFFFFFFF00000000000000000000000000000000000000000000FFFFFFFFFFFFFFFFFFFF0000000000FF000000FF
310
00000000FF000000000000FFFFFFFFFFFFFFFFFFFF000000000000FF000000FF00000000FF000000000000FFFFFFFFFFFFFFFFFFFF000000FF0000FF0000000000000000FF000000FF0000FFFFFFFFFFFFFFFFFFFF00000000FF000000000000000000000000000000000000FFFFFFFFFFFFFFFFFFFF000000FF000000FFFF
310
FFFFFFFFFFFFFFFFFFFFFFFFFFFFFFFFFFFFFFFFFFFFFFFF000000000000FFFFFFFFFFFFFFFFFFFFFFFFFFFFFFFFFFFFFFFFFFFFFFFFFFFFFFFFFFFFFFFFFFFFFFFFFFFFFFFFFFFFFFFFFFFFFFFFFFFFFFFFFFFFFFFFFFFFFFFFFFFFFFFFFFFFFFFFFFFFFFFFFFFFFFFFFFFFFFFFFFFFFFFFFFFFFFFFFFFFFFFFFFFFFFFFFF
310
FFFFFFFFFFFFFFFFFFFFFFFFFFFFFFFFFFFFFFFFFFFFFFFFFFFFFFFFFFFFFFFFFFFFFFFFFFFFFFFFFFFFFFFFFFFFFFFFFFFFFFFFFFFFFFFFFFFFFFFFFFFFFFFFFFFFFFFFFFFFFFFFFFFFFFFFFFFFFFFFFFFFFFFFFFFFFFFFFFFFFFFFFFFFFFFFFFFFFFFFFFFFFFFFFFFFFFFFFFFFFFFFFFFFFFFFFFFFFFFFFFFFFFFFFFFFFF
310
FFFFFFFFFFFFFFFFFFFFFFFFFFFFFFFFFFFFFFFFFFFFFFFFFFFFFFFFFFFFFFFFFFFFFFFFFFFFFFFFFFFFFFFFFFFFFFFFFFFFFFFFFFFFFFFFFFFFFFFFFFFFFFFFFFFFFFFFFFFFFFFFFFFFFFFFFFFFFFFFFFFFFFFFFFFFFFFFFFFFFFFFFFFFFFFFFFFFFFFFFFFFFFFFFFFFFFFFFFFFFFFFFFFFFFFFFFFFFFFFFFFFFFFFFFFFFF
310
FFFFFFFFFFFFFFFFFFFFFFFFFFFFFFFFFFFFFFFFFFFFFFFFFFFFFFFFFFFFFFFFFFFFFFFFFFFFFFFFFFFFFFFFFFFFFFFFFFFFFFFFFFFFFFFF
102
{BLKREFS
331
1037
102
}
  0
BLOCK_RECORD
  5
2F70
330
1
100
AcDbSymbolTableRecord
100
AcDbBlockTableRecord
  2
175GRID
340
0
310
2800000020000000200000000100080000000000000400000000000000000000000000000000000000000000000080000080000000808000800000008000800080800000C0C0C000C0DCC000F0CAA6000020400000206000002080000020A0000020C0000020E00000400000004020000040400000406000004080000040A0
310
000040C0000040E00000600000006020000060400000606000006080000060A0000060C0000060E00000800000008020000080400000806000008080000080A0000080C0000080E00000A0000000A0200000A0400000A0600000A0800000A0A00000A0C00000A0E00000C0000000C0200000C0400000C0600000C0800000C0
310
A00000C0C00000C0E00000E0000000E0200000E0400000E0600000E0800000E0A00000E0C00000E0E00040000000400020004000400040006000400080004000A0004000C0004000E00040200000402020004020400040206000402080004020A0004020C0004020E000404000004040200040404000404060004040800040
310
40A0004040C0004040E00040600000406020004060400040606000406080004060A0004060C0004060E00040800000408020004080400040806000408080004080A0004080C0004080E00040A0000040A0200040A0400040A0600040A0800040A0A00040A0C00040A0E00040C0000040C0200040C0400040C0600040C08000
310
40C0A00040C0C00040C0E00040E0000040E0200040E0400040E0600040E0800040E0A00040E0C00040E0E00080000000800020008000400080006000800080008000A0008000C0008000E00080200000802020008020400080206000802080008020A0008020C0008020E00080400000804020008040400080406000804080
310
008040A0008040C0008040E00080600000806020008060400080606000806080008060A0008060C0008060E00080800000808020008080400080806000808080008080A0008080C0008080E00080A0000080A0200080A0400080A0600080A0800080A0A00080A0C00080A0E00080C0000080C0200080C0400080C0600080C0
310
800080C0A00080C0C00080C0E00080E0000080E0200080E0400080E0600080E0800080E0A00080E0C00080E0E000C0000000C0002000C0004000C0006000C0008000C000A000C000C000C000E000C0200000C0202000C0204000C0206000C0208000C020A000C020C000C020E000C0400000C0402000C0404000C0406000C0
310
408000C040A000C040C000C040E000C0600000C0602000C0604000C0606000C0608000C060A000C060C000C060E000C0800000C0802000C0804000C0806000C0808000C080A000C080C000C080E000C0A00000C0A02000C0A04000C0A06000C0A08000C0A0A000C0A0C000C0A0E000C0C00000C0C02000C0C04000C0C06000
310
C0C08000C0C0A000F0FBFF00A4A0A000808080000000FF0000FF000000FFFF00FF000000FF00FF00FFFF0000FFFFFF00FFFFFFFFFFFFFFFFFFFFFFFFFFFFFFFFFFFFFFFFFFFFFFFFFFFFFFFFFFFFFFFFFFFFFFFFFFFFFFFFFFFFFFFFFFFFFFFFFFFFFFFFFFFFFFFFFFFFFFFFFFFFFFFFFFFFFFFFFFFFFFFFFFFFFFFFFFFFFF
310
FFFFFFFFFFFFFFFFFFFFFFFFFFFFFFFFFFFFFFFFFFFFFFFFFFFFFFFFFFFFFFFFFFFFFFFFFFFFFFFFFFFFFFFFFFFFFFFFFFFFFFFFFFFFFFFFFFFFFFFFFFFFFFFFFFFFFFFFFFFFFFFFFFFFFFFFFFFFFFFFFFFFFFFFFFFFFFFFFFFFFFFFFFFFFFFFFFFFFFFFFFFFFFFFFFFFFFFFFFFFFFFFFFFFFFFFFFFFFFFFFFFFFFFFFFFFFF
310
FFFFFFFFFFFFFFFFFFFFFFFFFFFFFFFFFFFFFFFFF9F9F9F9F9FFFFFFFFFFFFFFFFFFFFFFFFFFFFFFFFFFFFFFFFFFFFFFFFFFFFF9F9F9F9F9F900000000F9F9F9FFFFFFFFFFFFFFFFFFFFFFFFFFFFFFFFFFFFFFFFFF000000A400F9F9F9000000F9F9F9F9FFFFFFFFFFFFFFFFFFFFFFFFFFFFFFFF00000000F90000FFFFFFFF
310
0000000000F9F9F9F9F9FFFFFFFFFFFFFFFFFFFFFFFFF9FF00FF00FFFFFFFFFFFFFFFF0000000000F9F9F9F9FFFFFFFFFFFFFFFFFFFF00F9FFFF00FFFFFFFFFFFFFFFFFFFFFFFF000000000000F9F9F9F9F9FFFFFFFF00F9FFFF00FFFFFFFFFFFFFFFFFFFFFFFFFFFFFF00A400F9F9F9F9FFFFFFFFFF000000000000FFFFFF
310
FFFFFFFFFFFFFFFFFFFFFFFFFFF9F9F9F9FFFFFFFFFFFF000000000000FFFFFFFFFFFFFFFFFFFFFFFFFFFFFF0000F9FFF9FFFFFFFFFFFF00F9FF0000F9F9FFFFFFFFFFFFFFFFFFFFFFFFFFFFFF00F9FFF9FFFFFFFFFFFF00000000F9F9FF00000000FFFFFFFFFFFFFFFFFFFFFF00F9F9F9FFFFFFFFFFF9F9F9F9F9F90000FF
310
FFFFFF0000000000FFFFFFFFFFFF00F9FFF9FFFFFFFFFFF9F9F9FFF9F9FFFF00000000FFFFFFFFFF00000000FFFF00F9F9F9FFFFFFFFFFFFF9FFF9F9F9F9FFFFFFFFF9F9000000FFFFFFFFFF0000F9F9FFF9FFFFFFFFFFFFFFFFFFFFFFFFF9F9F9F9F9F9F9FFFF000000000000F9F9F9F9F9FFFFFFFFFFFFFFFFFFFFFFFFFF
310
FFFFFFF9F9FFF9F9F9FFF9FF00FFFFF9F9F9F9FFFFFFFFFFFFFFFFFFFFFFFFFFFFFFFFFFFFFFFFFFFFF9F9FFF9F9F9F9FFF9F9FFFFFFFFFFFFFFFFFFFFFFFFFFFFFFFFFFFFFFFFFFFFFFF9F9F9F9FFFFFFFFFFFFFFFFFFFFFFFFFFFFFFFFFFFFFFFFFFFFFFFFFFFFFFFFFFFFFFFFFFFFFFFFFFFFFFFFFFFFFFFFFFFFFFFFFF
310
FFFFFFFFFFFFFFFFFFFFFFFFFFFFFFFFFFFFFFFFFFFFFFFFFFFFFFFFFFFFFFFFFFFFFFFFFFFFFFFFFFFFFFFFFFFFFFFFFFFFFFFFFFFFFFFFFFFFFFFFFFFFFFFFFFFFFFFFFFFFFFFFFFFFFFFFFFFFFFFFFFFFFFFFFFFFFFFFFFFFFFFFFFFFFFFFFFFFFFFFFFFFFFFFFFFFFFFFFFFFFFFFFFFFFFFFFFFFFFFFFFFFFFFFFFFFFF
310
FFFFFFFFFFFFFFFFFFFFFFFFFFFFFFFFFFFFFFFFFFFFFFFFFFFFFFFFFFFFFFFFFFFFFFFFFFFFFFFFFFFFFFFFFFFFFFFFFFFFFFFFFFFFFFFF
102
{BLKREFS
331
3225
102
}
  0
ENDTAB
  0
ENDSEC
  0
SECTION
  2
BLOCKS
  0
BLOCK
  5
59
330
1E
100
AcDbEntity
  8
0
380
     2
100
AcDbBlockBegin
  2
*Model_Space
 70
     0
 10
0.0
 20
0.0
 30
0.0
  3
*Model_Space
  1

  0
ENDBLK
  5
5A
330
1E
100
AcDbEntity
  8
0
380
     2
100
AcDbBlockEnd
  0
BLOCK
  5
49C
330
49A
100
AcDbEntity
 67
     1
  8
0
380
     2
100
AcDbBlockBegin
  2
*Paper_Space
 70
     0
 10
0.0
 20
0.0
 30
0.0
  3
*Paper_Space
  1

  0
ENDBLK
  5
49D
330
49A
100
AcDbEntity
 67
     1
  8
0
380
     2
100
AcDbBlockEnd
  0
BLOCK
  5
1025
330
1024
100
AcDbEntity
  8
0
380
     2
100
AcDbBlockBegin
  2
NEWLOGO
 70
     0
 10
0.0
 20
0.0
 30
0.0
  3
NEWLOGO
  1

  0
LWPOLYLINE
  5
1027
102
{ACAD_REACTORS
330
1028
102
}
330
1024
100
AcDbEntity
  8
0
390
F
100
AcDbPolyline
 90
       11
 70
   128
 43
0.0007176598878676
 10
-0.1327203150685285
 20
0.2145101340236302
 10
-0.2015120290040802
 20
0.2145101340236302
 10
-0.1231309483291536
 20
0.0656088745217964
 10
-0.1231309483291536
 20
-0.0199418546509751
 10
-0.0503893564305145
 20
-0.0199418546509751
 10
-0.0503893564305145
 20
0.0656309769691497
 10
0.0284496750649481
 20
0.2145216028133232
 10
-0.0473629336050987
 20
0.2145216028133232
 10
-0.0865984811497676
 20
0.1329595391780911
 10
-0.1258397646070026
 20
0.2145171826807468
 10
-0.1327946293833673
 20
0.214509712888673
  0
HATCH
  5
1028
330
1024
100
AcDbEntity
  8
0
390
F
100
AcDbHatch
 10
0.0
 20
0.0
 30
0.0
210
0.0
220
0.0
230
1.0
  2
SOLID
 70
     1
 71
     1
 91
        1
 92
        7
 72
     0
 73
     1
 93
       10
 10
-0.0503893564305145
 20
0.0656309769691497
 10
0.0284496750649481
 20
0.2145216028133232
 10
-0.0473629336050987
 20
0.2145216028133233
 10
-0.0865984811497676
 20
0.1329595391780911
 10
-0.1258397646070026
 20
0.2145171826807468
 10
-0.1324025252055675
 20
0.2145101340236302
 10
-0.2015120290040801
 20
0.2145101340236302
 10
-0.1231309483291536
 20
0.0656088745217965
 10
-0.1231309483291536
 20
-0.0199418546509751
 10
-0.0503893564305145
 20
-0.0199418546509751
 97
        1
330
1027
 75
     0
 76
     1
 47
0.0114417074434493
 98
        1
 10
-0.0864556685442271
 20
0.0712099839471456
  0
MTEXT
  5
1029
330
1024
100
AcDbEntity
  8
0
380
     2
100
AcDbMText
 10
-0.5636396839464127
 20
-0.0497129744277678
 30
0.0
 40
0.06
 41
1.615199999999999
 71
     1
 72
     5
  1
{\fArial Rounded MT Bold|b0|i0|c0|p34;EMERGENCY POWER SYSTEMS}
  7
ROMAND
 73
     1
 44
1.0
  0
LWPOLYLINE
  5
102A
102
{ACAD_REACTORS
330
102B
102
}
330
1024
100
AcDbEntity
  8
0
390
F
100
AcDbPolyline
 90
      141
 70
   128
 43
0.0007176598878676
 10
-0.4049021336623078
 20
0.2145037720774203
 10
-0.4790187842083711
 20
0.2145037720774203
 10
-0.4790187842083711
 20
0.0316946833308425
 10
-0.4819460520460872
 20
0.0348478130791499
 10
-0.4880195355912278
 20
0.0419423587562591
 10
-0.4937775145818418
 20
0.0494310415341461
 10
-0.4995354935724557
 20
0.0579444957477309
 10
-0.5045047079659071
 20
0.0663002921262681
 10
-0.5096316778474712
 20
0.0766267919771053
 10
-0.5116781902320771
 20
0.0814775442782621
 10
-0.5139987358310539
 20
0.0873770857914878
 10
-0.5162785742722047
 20
0.094171732695358
 10
-0.5181137613452887
 20
0.1008262319809452
 10
-0.5197829217803492
 20
0.1079056841926036
 10
-0.5211263992660041
 20
0.1154733770694944
 10
-0.5218801912836586
 20
0.1206640378062751
 10
-0.5223004466125101
 20
0.1244860356739075
 10
-0.5225946247005365
 20
0.128350031708103
 10
-0.522796856884515
 20
0.1321111735615652
 10
-0.5228978060122991
 20
0.1363147785578631
 10
-0.5229151317595484
 20
0.1413372399916639
 10
-0.5226964086493507
 20
0.147222286986481
 10
-0.5221139925460197
 20
0.1539122589106121
 10
-0.5217128160885843
 20
0.157276188070238
 10
-0.5209413065999673
 20
0.1621195763175178
 10
-0.5196268808862019
 20
0.1690630076560113
 10
-0.5171858063954069
 20
0.1786068753864258
 10
-0.5138127312835828
 20
0.1883502224290714
 10
-0.5102836345427076
 20
0.1968673990985206
 10
-0.5061913932209255
 20
0.2050844074685596
 10
-0.5011440909525487
 20
0.2135643146583401
 10
-0.4961840852772426
 20
0.2207744601092285
 10
-0.4893338649794892
 20
0.2293891423623275
 10
-0.4812576008283838
 20
0.2380369943025942
 10
-0.4725220592437669
 20
0.2459436013630185
 10
-0.4615501541286289
 20
0.2545510692990005
 10
-0.4488588901476494
 20
0.2627047569877945
 10
-0.4346842326761689
 20
0.2701995610044472
 10
-0.4214985041983557
 20
0.2757177140046778
 10
-0.4028529498504021
 20
0.281734795880098
 10
-0.3900405597594805
 20
0.284780720097415
 10
-0.3809280515273361
 20
0.2864069601418375
 10
-0.3707849567320629
 20
0.2877892670245945
 10
-0.3618594612543262
 20
0.2885400920623686
 10
-0.3532002736855713
 20
0.2889648233780351
 10
-0.3436379767251676
 20
0.2890710047095846
 10
-0.3328007089772758
 20
0.2885931827281434
 10
-0.3227071768644603
 20
0.2878499014283591
 10
-0.3138354952347413
 20
0.286788073139193
 10
-0.3033169685782973
 20
0.2849298758792038
 10
-0.2927399017024577
 20
0.2825404425405971
 10
-0.2838362464272404
 20
0.2800420936771957
 10
-0.2739737285588841
 20
0.2767908204666387
 10
-0.2626044422111526
 20
0.2722732624047683
 10
-0.2505013995505187
 20
0.2664625926535864
 10
-0.2389773502269854
 20
0.2597623457929554
 10
-0.1741029583664311
 20
0.2597623457929554
 10
-0.1789623103121638
 20
0.2647474059787394
 10
-0.1853504379039972
 20
0.2706951088235865
 10
-0.1924483624451341
 20
0.2767519458088987
 10
-0.2000922856275356
 20
0.2825905145132808
 10
-0.2080092017088688
 20
0.2880471227102434
 10
-0.2176117884165833
 20
0.2941549181098617
 10
-0.2301439868826041
 20
0.3011045156081495
 10
-0.2438224267330842
 20
0.3075958976564062
 10
-0.2613216562144718
 20
0.3140872797046619
 10
-0.2752293443418452
 20
0.3185166937251438
 10
-0.2842058345411935
 20
0.3208371583119014
 10
-0.2957446280884781
 20
0.3233573417897073
 10
-0.3083532447873623
 20
0.325419309817482
 10
-0.3208090314422165
 20
0.3268703249101259
 10
-0.3327299033104225
 20
0.3276340183250905
 10
-0.3414921720114403
 20
0.327975714617633
 10
-0.3498412043019705
 20
0.3280259782533719
 10
-0.3575615521389359
 20
0.3277997888978161
 10
-0.3661796921997524
 20
0.3272975688086319
 10
-0.3750819796528191
 20
0.3264933356631516
 10
-0.3852919436126978
 20
0.3252367178170905
 10
-0.396105457491398
 20
0.3233769243632354
 10
-0.4068357782434813
 20
0.3211578525264285
 10
-0.4189066738727103
 20
0.3179911775907733
 10
-0.4288400166730231
 20
0.3149250329213293
 10
-0.4362535677809892
 20
0.3122213051173359
 10
-0.4443762736682367
 20
0.3090043665459436
 10
-0.452624716446195
 20
0.3053853099044437
 10
-0.4610240499147107
 20
0.301364135192836
 10
-0.4672103819981804
 20
0.2980466663552335
 10
-0.473688394128283
 20
0.2942849345389344
 10
-0.4827164184720605
 20
0.2886552905416302
 10
-0.4904870546436122
 20
0.2832267040820122
 10
-0.4965067050756354
 20
0.2785093672343901
 10
-0.5023912621996942
 20
0.2736588245646967
 10
-0.5077728717609027
 20
0.2688585485254773
 10
-0.5122994576218627
 20
0.2645357860099731
 10
-0.5158814306425193
 20
0.260923784964624
 10
-0.5205337533941919
 20
0.2558973165751137
 10
-0.5256135879959896
 20
0.2499409499613083
 10
-0.5300698755044149
 20
0.2442416124862348
 10
-0.5353006007967683
 20
0.2369029689370246
 10
-0.5393242262514768
 20
0.2308460750517431
 10
-0.5437059385550072
 20
0.2233107193256334
 10
-0.5468242519748863
 20
0.2173292208939594
 10
-0.5492887271413558
 20
0.2123530161401872
 10
-0.5520356222627126
 20
0.2061235386595817
 10
-0.5549276092793072
 20
0.1987848921156354
 10
-0.5571441361777847
 20
0.1922599001541352
 10
-0.5591308047378476
 20
0.1856249624789292
 10
-0.5606145193133579
 20
0.1799701836690213
 10
-0.5622244652505
 20
0.1725351875092151
 10
-0.5631046363288892
 20
0.1672322631336778
 10
-0.5639848074072784
 20
0.1613010313324761
 10
-0.5647915527651169
 20
0.1538905590592918
 10
-0.5652190646152402
 20
0.1480347257064327
 10
-0.5654206225206942
 20
0.1407300244860741
 10
-0.5653451739645661
 20
0.133718100558629
 10
-0.5650148224390854
 20
0.125742174362335
 10
-0.564486888040598
 20
0.1190941856310914
 10
-0.5632198287878066
 20
0.1100543318362508
 10
-0.5621826728253332
 20
0.103326575337995
 10
-0.5603600722847215
 20
0.0952037394113186
 10
-0.5577000691893215
 20
0.0856532533160932
 10
-0.5538175991276031
 20
0.0737680357155783
 10
-0.5491984829878743
 20
0.06246843559033
 10
-0.5436831158323532
 20
0.0514444379515755
 10
-0.5366510201403827
 20
0.038835740240474
 10
-0.5276888439108714
 20
0.0256899457539515
 10
-0.5123470231555452
 20
0.0072717103015769
 10
-0.4984525444655663
 20
-0.0061321345283822
 10
-0.4856884134519551
 20
-0.0165038818334829
 10
-0.3971110957490911
 20
-0.0165038818334829
 10
-0.3971110957490911
 20
0.07992589709841
 10
-0.3673802740116514
 20
0.0206659570051944
 10
-0.3250873672152714
 20
0.0206659570051944
 10
-0.2947417062099866
 20
0.0801378554722554
 10
-0.2947417062099866
 20
-0.016541549612934
 10
-0.2135263091451556
 20
-0.016541549612934
 10
-0.2135263091451556
 20
0.2148070848487977
 10
-0.2919166975269025
 20
0.2148070848487977
 10
-0.345747357555128
 20
0.1069397952405744
 10
-0.4011403979868132
 20
0.214516954901808
 10
-0.4049165889095506
 20
0.2145034965617816
  0
HATCH
  5
102B
330
1024
100
AcDbEntity
  8
0
390
F
100
AcDbHatch
 10
0.0
 20
0.0
 30
0.0
210
0.0
220
0.0
230
1.0
  2
SOLID
 70
     1
 71
     1
 91
        1
 92
        7
 72
     0
 73
     1
 93
      140
 10
-0.3673802740116514
 20
0.0206659570051944
 10
-0.3250873672152714
 20
0.0206659570051944
 10
-0.2947417062099867
 20
0.0801378554722554
 10
-0.2947417062099867
 20
-0.016541549612934
 10
-0.2135263091451555
 20
-0.016541549612934
 10
-0.2135263091451556
 20
0.2148070848487977
 10
-0.2919166975269025
 20
0.2148070848487978
 10
-0.345747357555128
 20
0.1069397952405744
 10
-0.4011403979868132
 20
0.214516954901808
 10
-0.4048392837105436
 20
0.2145037720774203
 10
-0.4790187842083711
 20
0.2145037720774204
 10
-0.4790187842083711
 20
0.0316946833308424
 10
-0.4819460520460875
 20
0.0348478130791495
 10
-0.488019535591228
 20
0.0419423587562591
 10
-0.4937775145818417
 20
0.0494310415341457
 10
-0.4995354935724555
 20
0.0579444957477304
 10
-0.5045047079659078
 20
0.0663002921262685
 10
-0.5096316778474717
 20
0.0766267919771062
 10
-0.5116781902320762
 20
0.0814775442782597
 10
-0.5139987358310539
 20
0.087377085791488
 10
-0.5162785742722048
 20
0.0941717326953578
 10
-0.518113761345289
 20
0.1008262319809444
 10
-0.519782921780349
 20
0.1079056841926038
 10
-0.5211263992660042
 20
0.1154733770694961
 10
-0.5218801912836585
 20
0.1206640378062739
 10
-0.5223004466125101
 20
0.1244860356739082
 10
-0.5225946247005365
 20
0.1283500317081019
 10
-0.5227968568845148
 20
0.1321111735615636
 10
-0.5228978060122991
 20
0.1363147785578704
 10
-0.5229151317595484
 20
0.1413372399916624
 10
-0.5226964086493508
 20
0.1472222869864802
 10
-0.5221139925460199
 20
0.1539122589106126
 10
-0.5217128160885839
 20
0.1572761880702379
 10
-0.5209413065999674
 20
0.1621195763175164
 10
-0.5196268808862019
 20
0.1690630076560109
 10
-0.517185806395407
 20
0.1786068753864264
 10
-0.5138127312835826
 20
0.188350222429072
 10
-0.510283634542707
 20
0.1968673990985208
 10
-0.5061913932209254
 20
0.2050844074685594
 10
-0.501144090952549
 20
0.2135643146583392
 10
-0.4961840852772429
 20
0.2207744601092289
 10
-0.489333864979489
 20
0.229389142362327
 10
-0.4812576008283844
 20
0.2380369943025939
 10
-0.472522059243766
 20
0.245943601363019
 10
-0.4615501541286291
 20
0.2545510692990007
 10
-0.4488588901476489
 20
0.2627047569877944
 10
-0.4346842326761684
 20
0.2701995610044472
 10
-0.4214985041983555
 20
0.275717714004678
 10
-0.4028529498504012
 20
0.281734795880098
 10
-0.3900405597594809
 20
0.284780720097415
 10
-0.3809280515273352
 20
0.2864069601418376
 10
-0.3707849567320628
 20
0.2877892670245947
 10
-0.361859461254326
 20
0.2885400920623687
 10
-0.3532002736855704
 20
0.2889648233780351
 10
-0.3436379767251672
 20
0.2890710047095846
 10
-0.3328007089772755
 20
0.2885931827281433
 10
-0.3227071768644609
 20
0.2878499014283591
 10
-0.3138354952347409
 20
0.2867880731391929
 10
-0.3033169685782966
 20
0.2849298758792037
 10
-0.2927399017024583
 20
0.2825404425405973
 10
-0.2838362464272392
 20
0.2800420936771954
 10
-0.2739737285588843
 20
0.2767908204666388
 10
-0.2626044422111529
 20
0.2722732624047684
 10
-0.2505013995505187
 20
0.2664625926535864
 10
-0.2389773502269854
 20
0.2597623457929555
 10
-0.1741029583664311
 20
0.2597623457929554
 10
-0.1789623103121634
 20
0.2647474059787389
 10
-0.1853504379039969
 20
0.2706951088235863
 10
-0.192448362445134
 20
0.2767519458088985
 10
-0.2000922856275353
 20
0.2825905145132804
 10
-0.2080092017088686
 20
0.2880471227102436
 10
-0.2176117884165833
 20
0.2941549181098615
 10
-0.2301439868826041
 20
0.3011045156081494
 10
-0.243822426733084
 20
0.3075958976564061
 10
-0.2613216562144717
 20
0.3140872797046619
 10
-0.2752293443418444
 20
0.3185166937251438
 10
-0.2842058345411949
 20
0.3208371583119014
 10
-0.2957446280884775
 20
0.3233573417897072
 10
-0.3083532447873626
 20
0.325419309817482
 10
-0.3208090314422173
 20
0.326870324910126
 10
-0.3327299033104214
 20
0.3276340183250905
 10
-0.3414921720114405
 20
0.327975714617633
 10
-0.349841204301969
 20
0.3280259782533719
 10
-0.3575615521389369
 20
0.3277997888978161
 10
-0.3661796921997517
 20
0.3272975688086319
 10
-0.3750819796528182
 20
0.3264933356631515
 10
-0.3852919436126981
 20
0.3252367178170905
 10
-0.3961054574913981
 20
0.3233769243632357
 10
-0.406835778243481
 20
0.3211578525264286
 10
-0.4189066738727087
 20
0.3179911775907741
 10
-0.4288400166730244
 20
0.3149250329213289
 10
-0.43625356778099
 20
0.3122213051173363
 10
-0.4443762736682345
 20
0.3090043665459437
 10
-0.4526247164461937
 20
0.305385309904443
 10
-0.4610240499147101
 20
0.3013641351928357
 10
-0.4672103819981809
 20
0.2980466663552344
 10
-0.4736883941282838
 20
0.2942849345389353
 10
-0.4827164184720625
 20
0.2886552905416297
 10
-0.490487054643613
 20
0.2832267040820115
 10
-0.4965067050756341
 20
0.2785093672343895
 10
-0.5023912621996935
 20
0.273658824564698
 10
-0.5077728717609036
 20
0.2688585485254772
 10
-0.5122994576218636
 20
0.2645357860099718
 10
-0.5158814306425203
 20
0.2609237849646245
 10
-0.5205337533941914
 20
0.2558973165751144
 10
-0.525613587995991
 20
0.2499409499613073
 10
-0.5300698755044136
 20
0.244241612486236
 10
-0.5353006007967697
 20
0.2369029689370253
 10
-0.539324226251477
 20
0.2308460750517439
 10
-0.5437059385550067
 20
0.2233107193256345
 10
-0.5468242519748868
 20
0.2173292208939615
 10
-0.5492887271413551
 20
0.2123530161401895
 10
-0.5520356222627138
 20
0.2061235386595815
 10
-0.5549276092793072
 20
0.1987848921156341
 10
-0.5571441361777857
 20
0.1922599001541331
 10
-0.5591308047378476
 20
0.1856249624789292
 10
-0.5606145193133573
 20
0.1799701836690227
 10
-0.5622244652504992
 20
0.1725351875092178
 10
-0.5631046363288891
 20
0.1672322631336741
 10
-0.5639848074072785
 20
0.1613010313324729
 10
-0.5647915527651169
 20
0.1538905590592904
 10
-0.5652190646152403
 20
0.148034725706431
 10
-0.5654206225206942
 20
0.1407300244860745
 10
-0.5653451739645661
 20
0.1337181005586257
 10
-0.5650148224390853
 20
0.1257421743623343
 10
-0.5644868880405982
 20
0.1190941856310926
 10
-0.563219828787806
 20
0.1100543318362526
 10
-0.5621826728253332
 20
0.1033265753379952
 10
-0.5603600722847212
 20
0.0952037394113177
 10
-0.5577000691893215
 20
0.0856532533160935
 10
-0.5538175991276031
 20
0.0737680357155781
 10
-0.5491984829878742
 20
0.0624684355903297
 10
-0.5436831158323533
 20
0.0514444379515755
 10
-0.5366510201403826
 20
0.0388357402404737
 10
-0.5276888439108709
 20
0.0256899457539514
 10
-0.5123470231555453
 20
0.0072717103015771
 10
-0.4984525444655672
 20
-0.0061321345283813
 10
-0.485688413451955
 20
-0.0165038818334829
 10
-0.3971110957490911
 20
-0.0165038818334829
 10
-0.397111095749091
 20
0.0799258970984099
 97
        1
330
102A
 75
     0
 76
     1
 47
0.0061095475431254
 98
        1
 10
-0.3727129608038417
 20
0.08415823301109
  0
LWPOLYLINE
  5
102C
102
{ACAD_REACTORS
330
102D
102
}
330
1024
100
AcDbEntity
  8
0
390
F
100
AcDbPolyline
 90
       61
 70
   128
 43
0.0007176598878676
 10
0.3539636460123372
 20
0.21559169246287
 10
0.2399241532748668
 20
0.21559169246287
 10
0.2399241532748668
 20
-0.0210625697188514
 10
0.3125491710732255
 20
-0.0210625697188514
 10
0.3125491710732255
 20
0.0436477536361855
 10
0.3242923481089228
 20
0.0436477536361855
 10
0.3265097585405083
 20
0.0433194486013431
 10
0.3279591000502169
 20
0.0430122538484463
 10
0.3303178726018334
 20
0.0421255488434271
 10
0.3325468046029556
 20
0.0404386499465552
 10
0.3338884953933725
 20
0.0388166326000867
 10
0.3352301823572965
 20
0.0366539404255031
 10
0.3367017098717131
 20
0.0337343081311783
 10
0.3417712272535027
 20
0.0211954805382311
 10
0.3590410727545485
 20
-0.0210543183288499
 10
0.4348413983830107
 20
-0.0210543183288499
 10
0.4081714636042815
 20
0.0452658433638398
 10
0.4066343538313788
 20
0.048187092388126
 10
0.4051476351409207
 20
0.0506550449499574
 10
0.4035601266325913
 20
0.0530222641714788
 10
0.4017923367469223
 20
0.0552015733321563
 10
0.3999276409334769
 20
0.0571658609769088
 10
0.3986677146391972
 20
0.0582991030252789
 10
0.4005828053615766
 20
0.0595582626412723
 10
0.4037830236591962
 20
0.0618247485224837
 10
0.4069328432213873
 20
0.0641919677440059
 10
0.4098380925022873
 20
0.0666788124913795
 10
0.4144998282094062
 20
0.0710103193576535
 10
0.4186827893226824
 20
0.0756440244603862
 10
0.4223617822141428
 20
0.0802525471202769
 10
0.4268451000458669
 20
0.087122287905479
 10
0.4303365527033236
 20
0.0935722481466979
 10
0.4331931978738748
 20
0.1005861402155768
 10
0.4356677294828267
 20
0.1088401319747119
 10
0.436803455476861
 20
0.1144869218278579
 10
0.4375700703315104
 20
0.1204458476317614
 10
0.4378818873956121
 20
0.1282410182088389
 10
0.437826269324134
 20
0.1362449253979525
 10
0.4370476354558957
 20
0.1449714073805408
 10
0.4359986751839653
 20
0.1522488442778291
 10
0.4346781984691095
 20
0.1579578586053163
 10
0.4327650936964443
 20
0.1647618470186778
 10
0.430716110167797
 20
0.1702626226013031
 10
0.4284662434250795
 20
0.1753217311134811
 10
0.4254128514790754
 20
0.1808225084805759
 10
0.4218276000059209
 20
0.1863938366597617
 10
0.4173680446938999
 20
0.1922559781558117
 10
0.4133102481570301
 20
0.1964317489581546
 10
0.4078061100807329
 20
0.2011294933413792
 10
0.4029407896556965
 20
0.2044273119648183
 10
0.3999655844351473
 20
0.2061384903626342
 10
0.3969395251265411
 20
0.2076802458104225
 10
0.3934002298307835
 20
0.2092519928481238
 10
0.389933396827395
 20
0.210581969162261
 10
0.3869666711146848
 20
0.2115561542477407
 10
0.3812153186506357
 20
0.2130934449511983
 10
0.3744587159408361
 20
0.2143657775258845
 10
0.3682304944763146
 20
0.2151008525328022
 10
0.3638473312646706
 20
0.2153976063508152
 10
0.3586393560708174
 20
0.2155398785874185
 10
0.3539256183278283
 20
0.2155909536922254
  0
HATCH
  5
102D
330
1024
100
AcDbEntity
  8
0
390
F
100
AcDbHatch
 10
0.0
 20
0.0
 30
0.0
210
0.0
220
0.0
230
1.0
  2
SOLID
 70
     1
 71
     1
 91
        2
 92
        7
 72
     0
 73
     1
 93
       58
 10
0.2399241532748669
 20
-0.0210625697188514
 10
0.3125491710732255
 20
-0.0210625697188514
 10
0.3125491710732255
 20
0.0436477536361855
 10
0.3242923481089228
 20
0.0436477536361855
 10
0.3275526737046772
 20
0.0431650368179254
 10
0.3303178726018335
 20
0.0421255488434271
 10
0.3331791055442912
 20
0.0399601123510193
 10
0.3352301823572966
 20
0.0366539404255032
 10
0.3367017098717135
 20
0.0337343081311774
 10
0.3417712272535019
 20
0.0211954805382351
 10
0.3590410727545485
 20
-0.0210543183288499
 10
0.4348413983830107
 20
-0.0210543183288499
 10
0.4081714636042812
 20
0.0452658433638399
 10
0.4066343538313781
 20
0.0481870923881261
 10
0.4051476351409208
 20
0.0506550449499568
 10
0.4035601266325913
 20
0.0530222641714786
 10
0.4017923367469217
 20
0.0552015733321572
 10
0.3999276409334768
 20
0.0571658609769087
 10
0.3986677146391972
 20
0.0582991030252789
 10
0.4005828053615782
 20
0.0595582626412727
 10
0.4037830236591973
 20
0.0618247485224843
 10
0.4069328432213872
 20
0.0641919677440058
 10
0.4098380925022876
 20
0.0666788124913798
 10
0.414499828209406
 20
0.0710103193576534
 10
0.4186827893226821
 20
0.0756440244603859
 10
0.4223617822141427
 20
0.0802525471202766
 10
0.4268451000458671
 20
0.087122287905479
 10
0.430336552703324
 20
0.0935722481466985
 10
0.4331931978738747
 20
0.1005861402155768
 10
0.4356677294828265
 20
0.1088401319747109
 10
0.4368034554768611
 20
0.1144869218278581
 10
0.4375700703315104
 20
0.1204458476317613
 10
0.4378818873956121
 20
0.1282410182088393
 10
0.437826269324134
 20
0.1362449253979518
 10
0.4370476354558956
 20
0.1449714073805408
 10
0.4359986751839655
 20
0.152248844277829
 10
0.4346781984691101
 20
0.1579578586053161
 10
0.4327650936964443
 20
0.1647618470186782
 10
0.4307161101677974
 20
0.170262622601302
 10
0.4284662434250793
 20
0.1753217311134816
 10
0.4254128514790756
 20
0.1808225084805753
 10
0.421827600005921
 20
0.1863938366597606
 10
0.4173680446939
 20
0.1922559781558113
 10
0.4133102481570294
 20
0.1964317489581551
 10
0.4078061100807333
 20
0.2011294933413787
 10
0.4029407896556968
 20
0.2044273119648181
 10
0.3999655844351476
 20
0.2061384903626341
 10
0.396939525126542
 20
0.2076802458104219
 10
0.3934002298307836
 20
0.2092519928481241
 10
0.3899333968273941
 20
0.2105819691622613
 10
0.3869666711146844
 20
0.2115561542477407
 10
0.3812153186506358
 20
0.2130934449511983
 10
0.3744587159408363
 20
0.2143657775258844
 10
0.368230494476314
 20
0.2151008525328022
 10
0.3638473312646704
 20
0.2153976063508152
 10
0.3586393560708159
 20
0.2155398785874186
 10
0.3538574369489684
 20
0.21559169246287
 10
0.2399241532748668
 20
0.21559169246287
 97
        1
330
102C
 92
       22
 72
     0
 73
     1
 93
       26
 10
0.3126630666286125
 20
0.1045739652676731
 10
0.3126630666286125
 20
0.1541788290527712
 10
0.3287208284736813
 20
0.1541788290527712
 10
0.3287208284736813
 20
0.1541810507181154
 10
0.3413895652180405
 20
0.1541810507181154
 10
0.343731413192419
 20
0.1540997859472082
 10
0.346170836730796
 20
0.1538397404647753
 10
0.3493803725381514
 20
0.1531345000143967
 10
0.3522914189555025
 20
0.1521430751627387
 10
0.3546983173058784
 20
0.1508265894429819
 10
0.356893798107768
 20
0.1491687952543551
 10
0.3590567537216565
 20
0.1468446317287589
 10
0.3606179818780822
 20
0.1444392034322556
 10
0.3623029909240584
 20
0.1406251974449022
 10
0.3633930501039584
 20
0.1358156845725511
 10
0.3636947001236237
 20
0.1323656817859133
 10
0.3638208787205954
 20
0.1291770602447324
 10
0.3637127229042676
 20
0.1264748388718744
 10
0.3633930614813203
 20
0.1228009436792584
 10
0.3624316514112957
 20
0.1191654099936278
 10
0.3607459613234652
 20
0.1148334177294359
 10
0.3584269933786304
 20
0.1117488218980397
 10
0.3552801470012723
 20
0.1089457387030182
 10
0.3519964882037101
 20
0.1070314394207479
 10
0.3475498626105419
 20
0.1055273452156031
 10
0.3417350439384758
 20
0.1045739652676732
 97
        1
330
1036
 75
     0
 76
     1
 47
0.0114417074434493
 98
        2
 10
0.2747695383337536
 20
0.092559244643045
 10
0.2747695383337536
 20
0.092559244643045
  0
LWPOLYLINE
  5
102E
102
{ACAD_REACTORS
330
102F
102
}
330
1024
100
AcDbEntity
  8
0
390
F
100
AcDbPolyline
 90
       14
 70
   128
 43
0.0007176598878676
 10
0.2107654776246122
 20
0.2155387847072134
 10
0.0404968493088163
 20
0.2155387847072134
 10
0.0404968493088163
 20
-0.0210730695412487
 10
0.2115225645124248
 20
-0.0210730695412487
 10
0.2115225645124248
 20
0.0373509134256489
 10
0.113885979435592
 20
0.0373509134256489
 10
0.113885979435592
 20
0.0671076777729276
 10
0.1988898427174117
 20
0.0671076777729276
 10
0.1988898427174117
 20
0.1269911217774267
 10
0.113895538014372
 20
0.1269911217774267
 10
0.113895538014372
 20
0.1571134616032284
 10
0.2115029039929031
 20
0.1571134616032284
 10
0.2115029039929031
 20
0.2155429228935048
 10
0.2107558348629954
 20
0.2155387954140346
  0
HATCH
  5
102F
330
1024
100
AcDbEntity
  8
0
390
F
100
AcDbHatch
 10
0.0
 20
0.0
 30
0.0
210
0.0
220
0.0
230
1.0
  2
SOLID
 70
     1
 71
     1
 91
        1
 92
        7
 72
     0
 73
     1
 93
       12
 10
0.0404968493088163
 20
-0.0210730695412487
 10
0.2115225645124248
 20
-0.0210730695412487
 10
0.2115225645124248
 20
0.0373509134256489
 10
0.1138859794355919
 20
0.0373509134256489
 10
0.113885979435592
 20
0.0671076777729276
 10
0.1988898427174117
 20
0.0671076777729276
 10
0.1988898427174117
 20
0.1269911217774267
 10
0.113895538014372
 20
0.1269911217774267
 10
0.113895538014372
 20
0.1571134616032284
 10
0.2115029039929031
 20
0.1571134616032284
 10
0.2115029039929031
 20
0.2155387847072134
 10
0.0404968493088163
 20
0.2155387847072134
 97
        1
330
102E
 75
     0
 76
     1
 47
0.0114417074434493
 98
        1
 10
0.0810108984254097
 20
0.0991282479340914
  0
LWPOLYLINE
  5
1030
102
{ACAD_REACTORS
330
1031
102
}
330
1024
100
AcDbEntity
  8
0
390
F
100
AcDbPolyline
 90
      150
 70
   128
 43
0.0007176598878676
 10
0.6246452109477385
 20
0.1513817559532358
 10
0.6246452109477385
 20
0.2079898246154483
 10
0.6183087265250915
 20
0.2097754564615855
 10
0.6097791452055131
 20
0.2118264318820486
 10
0.6010571678326873
 20
0.213813316272387
 10
0.5932971707260962
 20
0.2151592707323013
 10
0.5831001531185489
 20
0.2166975036360021
 10
0.573672723550482
 20
0.2178511778676597
 10
0.5646300822624184
 20
0.218620293427275
 10
0.5559722369073406
 20
0.2190689449139125
 10
0.5466089393570233
 20
0.2190689449139125
 10
0.5383774839106455
 20
0.2187353507095278
 10
0.5276963231399901
 20
0.217658917268575
 10
0.5169254043299354
 20
0.2160442662149116
 10
0.5083086708124896
 20
0.2139810992943412
 10
0.4978070222941416
 20
0.2103929866348535
 10
0.487574651720486
 20
0.205549031689392
 10
0.4808428255509547
 20
0.2010638890805616
 10
0.4742007612473174
 20
0.1954126095005035
 10
0.4687255438028899
 20
0.188864301755574
 10
0.4641479029259675
 20
0.1815983711218516
 10
0.4615243141201546
 20
0.1760880682530637
 10
0.4591906127487473
 20
0.1694500569778583
 10
0.4571261893220325
 20
0.160659177036278
 10
0.4563183707939285
 20
0.1498948354888734
 10
0.4561431212544953
 20
0.1440940512146698
 10
0.456412391546202
 20
0.1344958466384929
 10
0.4573997261531062
 20
0.1265122931159794
 10
0.4591948792881145
 20
0.1188875519300971
 10
0.4615285806595218
 20
0.1112628089597445
 10
0.4645486438540605
 20
0.1053244973550829
 10
0.467961286067748
 20
0.100060374635615
 10
0.4712255522002771
 20
0.0960196043539883
 10
0.4754542628603442
 20
0.0919046929063177
 10
0.4806173915596866
 20
0.087540644442278
 10
0.4872942999059032
 20
0.0831291611925496
 10
0.4933777039274823
 20
0.0797186033135899
 10
0.4983482911668542
 20
0.0772718984379068
 10
0.5039865669449526
 20
0.0747881229792018
 10
0.5089942482046155
 20
0.0727121310716203
 10
0.5131305146274024
 20
0.0710990842566268
 10
0.5215879321210437
 20
0.0680592393457689
 10
0.5305646658987442
 20
0.065130607968448
 10
0.5394301137890807
 20
0.0619054065735387
 10
0.5465892443990655
 20
0.0588284892951885
 10
0.5525613663597753
 20
0.0560110732358741
 10
0.5561965726952032
 20
0.0534531548266539
 10
0.5587931464625129
 20
0.050005524580202
 10
0.5597699888264174
 20
0.0466767114946221
 10
0.5599183649075777
 20
0.0437851524847925
 10
0.5593619546032276
 20
0.0405228787223919
 10
0.5583604198818933
 20
0.0382244597477373
 10
0.5567282868156287
 20
0.0360372543066196
 10
0.5545768374653051
 20
0.0343319753671398
 10
0.5515722294748056
 20
0.0329974093957617
 10
0.5478628350987976
 20
0.0318481999084339
 10
0.5438195983666745
 20
0.0311067739722306
 10
0.5379587546403429
 20
0.0305507045200777
 10
0.5327656071057234
 20
0.0302912050855131
 10
0.5282224735400228
 20
0.0303583422061946
 10
0.5217310352952538
 20
0.0305807692732678
 10
0.5132365237813233
 20
0.0313221952094711
 10
0.503963041667797
 20
0.0325455476473122
 10
0.4954314361335772
 20
0.0339913271522274
 10
0.4886248402965752
 20
0.035532945195814
 10
0.4788884367484876
 20
0.0380744821690007
 10
0.4687887345034341
 20
0.0409064827029013
 10
0.4575264787239846
 20
0.0441741723322258
 10
0.4504058273246479
 20
0.0459169412052143
 10
0.4443024107462197
 20
0.0475870946341424
 10
0.4380536716278094
 20
0.0491120171749486
 10
0.4694687290427027
 20
-0.0139055381608735
 10
0.4746563166834204
 20
-0.0157626433901719
 10
0.480366538177373
 20
-0.0173102322709005
 10
0.4858319177090529
 20
-0.0185950793347898
 10
0.4912711431630897
 20
-0.0197751155440633
 10
0.4971362151638595
 20
-0.0208971172149211
 10
0.504104618071418
 20
-0.02203846432674
 10
0.5106922619957946
 20
-0.0229556320217936
 10
0.5189821288533274
 20
-0.024011538702541
 10
0.5268927214068473
 20
-0.0246884025084979
 10
0.535047134249087
 20
-0.025148669111382
 10
0.5426326318088162
 20
-0.0254194142768709
 10
0.5490041592516626
 20
-0.0253534370617903
 10
0.5592414583479233
 20
-0.0248987237300327
 10
0.5678483692585932
 20
-0.0239892970665157
 10
0.5777065088456226
 20
-0.022397801297597
 10
0.5886700418190092
 20
-0.0197252735081337
 10
0.598856750855207
 20
-0.0159855005145522
 10
0.6075882141034512
 20
-0.0114146694332975
 10
0.6148644353902349
 20
-0.0065321895616366
 10
0.6215169804573933
 20
-0.0000914710913564
 10
0.6282734721989059
 20
0.0092579587158932
 10
0.6325352590619211
 20
0.0179840927268007
 10
0.6352378572891216
 20
0.0273335225340512
 10
0.6365891564027227
 20
0.0367868352714362
 10
0.63679970916386
 20
0.0458726881298137
 10
0.6366957663159987
 20
0.0543910580649207
 10
0.635760250073318
 20
0.0637404860877009
 10
0.6334734385435273
 20
0.075063684429642
 10
0.6299392745744879
 20
0.084516997167027
 10
0.6248396465215969
 20
0.0935039671806468
 10
0.6193305072193347
 20
0.0997369197906562
 10
0.6125740154778221
 20
0.1059698724006663
 10
0.6044662246227102
 20
0.1114756480686685
 10
0.5956312241348308
 20
0.1161418608642348
 10
0.5888239127436954
 20
0.1192528508157453
 10
0.5815719016762611
 20
0.1219536017851972
 10
0.5755696422590014
 20
0.1240205036018036
 10
0.5635969828027534
 20
0.1274049885873127
 10
0.5514874956203287
 20
0.1310629668223511
 10
0.5439276164292651
 20
0.1335244096370527
 10
0.5415224132151586
 20
0.1346714831136033
 10
0.5385463508602442
 20
0.1361756986627185
 10
0.5358781604554537
 20
0.1381585269523926
 10
0.5344072337003905
 20
0.1398336751132874
 10
0.5331073435162921
 20
0.1423634916864893
 10
0.5326626476664878
 20
0.1450984295351905
 10
0.5327141254728592
 20
0.1470368477160902
 10
0.5331004328704659
 20
0.1488268211781172
 10
0.5341891197896676
 20
0.1510906089404527
 10
0.5358397080302524
 20
0.1529332278410242
 10
0.5379819661450967
 20
0.1544599687569192
 10
0.5405807669311607
 20
0.1555128935880354
 10
0.5429228330156235
 20
0.1562224399649006
 10
0.5455216338016875
 20
0.1568190971907528
 10
0.5484540664867695
 20
0.1573280120190317
 10
0.5505963207751226
 20
0.1576263397397231
 10
0.5534760741351228
 20
0.1579071207653691
 10
0.5564436225437675
 20
0.1581177043040167
 10
0.5601311102490332
 20
0.1583282896271339
 10
0.5635650354151523
 20
0.1583846128586694
 10
0.5670242498715617
 20
0.1583846128586694
 10
0.569833764131456
 20
0.158261771717596
 10
0.5734861322866696
 20
0.1580511863944789
 10
0.5770858249432962
 20
0.1577177599302884
 10
0.5801236124520468
 20
0.1573141395480384
 10
0.5836003866834841
 20
0.1568227749837447
 10
0.5880894174688187
 20
0.1560290016155132
 10
0.5917066660739767
 20
0.1552744045050876
 10
0.5952361196304956
 20
0.1544671619561182
 10
0.5988709318371744
 20
0.1535546267455903
 10
0.6023718091461668
 20
0.1525500485644118
 10
0.6059188224777117
 20
0.1514620267742659
 10
0.6093955967091472
 20
0.1503564547201357
 10
0.6136976650608777
 20
0.1488297138042398
 10
0.6167705721196822
 20
0.1477241435345791
 10
0.6204973196401103
 20
0.1462107914982651
 10
0.6246448129924965
 20
0.1445154092302712
 10
0.6246448129924965
 20
0.1514270814951999
  0
HATCH
  5
1031
330
1024
100
AcDbEntity
  8
0
390
F
100
AcDbHatch
 10
0.0
 20
0.0
 30
0.0
210
0.0
220
0.0
230
1.0
  2
SOLID
 70
     1
 71
     1
 91
        1
 92
        7
 72
     0
 73
     1
 93
      142
 10
0.5089942482046155
 20
0.0727121310716204
 10
0.5131305146274032
 20
0.0710990842566271
 10
0.5215879321210429
 20
0.0680592393457691
 10
0.5305646658987447
 20
0.0651306079684476
 10
0.5394301137890812
 20
0.0619054065735385
 10
0.5465892443990647
 20
0.0588284892951888
 10
0.5525613663597749
 20
0.0560110732358742
 10
0.5561965726952032
 20
0.053453154826654
 10
0.5587931464625131
 20
0.050005524580202
 10
0.5597699888264173
 20
0.0466767114946221
 10
0.5599183649075777
 20
0.0437851524847927
 10
0.5591505294503662
 20
0.0392832777957034
 10
0.5558915318428928
 20
0.0349159272119857
 10
0.5515722294748052
 20
0.0329974093957616
 10
0.5478628350987976
 20
0.0318481999084339
 10
0.5438195983666745
 20
0.0311067739722306
 10
0.5379587546403428
 20
0.0305507045200777
 10
0.5327656071057234
 20
0.0302912050855131
 10
0.5282224735400228
 20
0.0303583422061946
 10
0.5217310352952537
 20
0.0305807692732678
 10
0.5132365237813234
 20
0.0313221952094711
 10
0.503963041667797
 20
0.0325455476473123
 10
0.4954314361335777
 20
0.0339913271522274
 10
0.4886248402965741
 20
0.0355329451958141
 10
0.4788884367484876
 20
0.0380744821690008
 10
0.4687887345034339
 20
0.0409064827029014
 10
0.457526478723985
 20
0.0441741723322258
 10
0.4504058273246472
 20
0.0459169412052143
 10
0.4443024107462191
 20
0.0475870946341426
 10
0.4380536716278095
 20
0.0491120171749486
 10
0.4694687290427028
 20
-0.0139055381608735
 10
0.4746563166834205
 20
-0.0157626433901719
 10
0.4803665381773734
 20
-0.0173102322709006
 10
0.4858319177090543
 20
-0.01859507933479
 10
0.49127114316309
 20
-0.0197751155440634
 10
0.4971362151638598
 20
-0.0208971172149211
 10
0.504104618071418
 20
-0.02203846432674
 10
0.5106922619957939
 20
-0.0229556320217935
 10
0.5189821288533273
 20
-0.024011538702541
 10
0.5268927214068471
 20
-0.0246884025084979
 10
0.535047134249087
 20
-0.025148669111382
 10
0.5426326318088161
 20
-0.0254194142768709
 10
0.549004159251663
 20
-0.0253534370617903
 10
0.5592414583479233
 20
-0.0248987237300327
 10
0.5678483692585933
 20
-0.0239892970665156
 10
0.5777065088456223
 20
-0.022397801297597
 10
0.5886700418190088
 20
-0.0197252735081338
 10
0.5988567508552075
 20
-0.0159855005145521
 10
0.6075882141034512
 20
-0.0114146694332974
 10
0.6148644353902352
 20
-0.0065321895616364
 10
0.6215169804573933
 20
-0.0000914710913567
 10
0.6282734721989057
 20
0.0092579587158928
 10
0.632535259061921
 20
0.0179840927268005
 10
0.6352378572891216
 20
0.027333522534052
 10
0.6365891564027227
 20
0.036786835271436
 10
0.63679970916386
 20
0.0458726881298087
 10
0.6366957663159987
 20
0.0543910580649206
 10
0.6357602500733181
 20
0.0637404860877004
 10
0.6334734385435273
 20
0.0750636844296417
 10
0.6299392745744877
 20
0.0845169971670272
 10
0.6248396465215969
 20
0.0935039671806467
 10
0.6193305072193346
 20
0.0997369197906564
 10
0.6125740154778222
 20
0.1059698724006661
 10
0.6044662246227098
 20
0.1114756480686686
 10
0.5956312241348307
 20
0.1161418608642344
 10
0.5888239127436959
 20
0.1192528508157454
 10
0.5815719016762632
 20
0.121953601785197
 10
0.5755696422590006
 20
0.1240205036018037
 10
0.5635969828027552
 20
0.1274049885873122
 10
0.551487495620332
 20
0.1310629668223501
 10
0.543927616429265
 20
0.1335244096370526
 10
0.5415224132151592
 20
0.1346714831136034
 10
0.5385463508602442
 20
0.1361756986627184
 10
0.5348910488686478
 20
0.1388920850882251
 10
0.533107343516292
 20
0.1423634916864894
 10
0.5325050119029245
 20
0.1460679101729527
 10
0.5333985223593784
 20
0.1502080328188161
 10
0.5367660352733185
 20
0.1539673246825133
 10
0.5415594886814579
 20
0.1559094304981239
 10
0.5455216338016877
 20
0.1568190971907529
 10
0.5496303949786487
 20
0.1575321602729677
 10
0.5534760741351218
 20
0.157907120765369
 10
0.5564436225437655
 20
0.1581177043040166
 10
0.5601311102490325
 20
0.1583282896271338
 10
0.5635650354151541
 20
0.1583846128586694
 10
0.5670242498715611
 20
0.1583846128586695
 10
0.5698337641314538
 20
0.1582617717175961
 10
0.5734861322866695
 20
0.1580511863944789
 10
0.5770858249432958
 20
0.1577177599302884
 10
0.5801236124520473
 20
0.157314139548038
 10
0.5836003866834841
 20
0.1568227749837448
 10
0.5880894174688202
 20
0.1560290016155128
 10
0.5917066660739768
 20
0.1552744045050875
 10
0.5952361196304925
 20
0.1544671619561188
 10
0.5988709318371761
 20
0.1535546267455901
 10
0.6023718091461652
 20
0.152550048564412
 10
0.6059188224777057
 20
0.1514620267742664
 10
0.609395596709145
 20
0.1503564547201361
 10
0.6136976650608693
 20
0.1488297138042412
 10
0.616770572119683
 20
0.1477241435345788
 10
0.6204973196401032
 20
0.1462107914982649
 10
0.6246448129924965
 20
0.1445154092302711
 10
0.6246448129924965
 20
0.1514270814951999
 10
0.6246452109477385
 20
0.1514270814951999
 10
0.6246452109477385
 20
0.2079898246154484
 10
0.6183087265250899
 20
0.2097754564615855
 10
0.6097791452055161
 20
0.2118264318820498
 10
0.6010571678326869
 20
0.2138133162723871
 10
0.5932971707260995
 20
0.2151592707323009
 10
0.5831001531185488
 20
0.2166975036360021
 10
0.5736727235504813
 20
0.2178511778676596
 10
0.5646300822624183
 20
0.218620293427275
 10
0.5559722369073397
 20
0.2190689449139125
 10
0.546608939357022
 20
0.2190689449139124
 10
0.5383774839106456
 20
0.2187353507095278
 10
0.5276963231399899
 20
0.217658917268575
 10
0.5169254043299353
 20
0.2160442662149115
 10
0.5083086708124899
 20
0.2139810992943413
 10
0.4978070222941416
 20
0.2103929866348535
 10
0.4875746517204863
 20
0.2055490316893922
 10
0.4808428255509547
 20
0.2010638890805617
 10
0.4742007612473174
 20
0.1954126095005036
 10
0.4687255438028897
 20
0.1888643017555741
 10
0.4641479029259673
 20
0.1815983711218516
 10
0.4615243141201545
 20
0.1760880682530637
 10
0.4591906127487472
 20
0.1694500569778583
 10
0.4571261893220324
 20
0.160659177036278
 10
0.4563183707939286
 20
0.1498948354888737
 10
0.4561431212544952
 20
0.1440940512146693
 10
0.4564123915462019
 20
0.134495846638494
 10
0.4573997261531062
 20
0.12651229311598
 10
0.4591948792881144
 20
0.1188875519300971
 10
0.4615285806595216
 20
0.1112628089597446
 10
0.4645486438540609
 20
0.105324497355082
 10
0.4679612860677482
 20
0.1000603746356155
 10
0.4712255522002773
 20
0.0960196043539882
 10
0.4754542628603439
 20
0.0919046929063178
 10
0.4806173915596861
 20
0.0875406444422783
 10
0.4872942999059035
 20
0.0831291611925498
 10
0.4933777039274824
 20
0.0797186033135902
 10
0.4983482911668549
 20
0.077271898437907
 10
0.5039865669449517
 20
0.0747881229792018
 97
        1
330
1030
 75
     0
 76
     1
 47
0.0114417074434493
 98
        1
 10
0.5194690592595848
 20
0.0991282479340914
  0
LWPOLYLINE
  5
1032
102
{ACAD_REACTORS
330
1033
102
}
330
1024
100
AcDbEntity
  8
0
390
F
100
AcDbPolyline
 90
       15
 70
   128
 43
0.000287063955147
 10
0.6668844234894263
 20
0.2091159973445587
 10
0.6631910237221561
 20
0.2091159973445587
 10
0.6631910237221561
 20
0.1881075385198816
 10
0.6672116627889669
 20
0.1881075385198816
 10
0.6672116627889669
 20
0.2010365976673674
 10
0.6711420412485066
 20
0.1931901732412076
 10
0.6748980248342527
 20
0.1931901732412076
 10
0.6787994030446214
 20
0.2010365976673674
 10
0.6787994030446214
 20
0.1881045279378188
 10
0.6827977079552899
 20
0.1881045279378188
 10
0.6827977079552899
 20
0.2091180394776906
 10
0.6789500640657007
 20
0.2091180394776906
 10
0.6730049519969761
 20
0.1971077155484373
 10
0.6670613798994225
 20
0.2091166557760626
 10
0.666875269046944
 20
0.2091159916561649
  0
HATCH
  5
1033
330
1024
100
AcDbEntity
  8
0
390
F
100
AcDbHatch
 10
0.0
 20
0.0
 30
0.0
210
0.0
220
0.0
230
1.0
  2
SOLID
 70
     1
 71
     1
 91
        1
 92
        7
 72
     0
 73
     1
 93
       13
 10
0.6711420412485066
 20
0.1931901732412076
 10
0.6748980248342528
 20
0.1931901732412076
 10
0.6787994030446214
 20
0.2010365976673675
 10
0.6787994030446213
 20
0.1881045279378188
 10
0.6827977079552899
 20
0.1881045279378188
 10
0.6827977079552899
 20
0.2091180394776906
 10
0.6789500640657007
 20
0.2091180394776906
 10
0.673004951996976
 20
0.1971077155484372
 10
0.6670617057762311
 20
0.2091159973445586
 10
0.6631910237221561
 20
0.2091159973445587
 10
0.6631910237221561
 20
0.1881075385198816
 10
0.6672116627889669
 20
0.1881075385198816
 10
0.6672116627889669
 20
0.2010365976673674
 97
        1
330
1032
 75
     0
 76
     1
 47
0.0010784043344941
 98
        1
 10
0.6698096408423773
 20
0.1993590773957292
  0
LWPOLYLINE
  5
1034
102
{ACAD_REACTORS
330
1035
102
}
330
1024
100
AcDbEntity
  8
0
390
F
100
AcDbPolyline
 90
       10
 70
   128
 43
0.000287063955147
 10
0.6546364335063704
 20
0.2091109232978869
 10
0.6392436318510751
 20
0.2091109232978869
 10
0.6392436318510751
 20
0.2056372519947951
 10
0.6451866184546411
 20
0.2056372519947951
 10
0.6451866184546411
 20
0.1881317085022793
 10
0.6493757944059002
 20
0.1881317085022793
 10
0.6493757944059002
 20
0.2056396638734812
 10
0.6553189700752338
 20
0.2056396638734812
 10
0.6553189700752338
 20
0.2091148113145893
 10
0.6546073387243166
 20
0.2091108920117248
  0
HATCH
  5
1035
330
1024
100
AcDbEntity
  8
0
390
F
100
AcDbHatch
 10
0.0
 20
0.0
 30
0.0
210
0.0
220
0.0
230
1.0
  2
SOLID
 70
     1
 71
     1
 91
        1
 92
        7
 72
     0
 73
     1
 93
        8
 10
0.6493757944059002
 20
0.2056396638734812
 10
0.6553189700752339
 20
0.2056396638734812
 10
0.6553189700752338
 20
0.2091109232978869
 10
0.6392436318510751
 20
0.2091109232978869
 10
0.6392436318510751
 20
0.2056372519947951
 10
0.6451866184546411
 20
0.2056372519947951
 10
0.6451866184546411
 20
0.1881317085022793
 10
0.6493757944059002
 20
0.1881317085022793
 97
        1
330
1034
 75
     0
 76
     1
 47
0.0010784043344941
 98
        1
 10
0.6473689153906826
 20
0.1998234332110673
  0
LWPOLYLINE
  5
1036
102
{ACAD_REACTORS
330
102D
102
}
330
1024
100
AcDbEntity
  8
0
390
F
100
AcDbPolyline
 90
       30
 70
   128
 43
0.0007176598878676
 10
0.3295487054765491
 20
0.1541788290527712
 10
0.3126630666286125
 20
0.1541788290527712
 10
0.3126630666286125
 20
0.1045739652676731
 10
0.3417350439384759
 20
0.1045739652676731
 10
0.347549862610542
 20
0.1055273452156031
 10
0.3519964882037101
 20
0.1070314394207479
 10
0.3552801470012721
 20
0.1089457387030182
 10
0.3584269933786306
 20
0.1117488218980398
 10
0.3598719879926264
 20
0.1136708943323095
 10
0.3611698463090978
 20
0.1159227439893007
 10
0.3624316514112955
 20
0.1191654099936272
 10
0.3630986090899153
 20
0.1216874837508222
 10
0.3634964150981013
 20
0.1239887953515995
 10
0.3637127229042676
 20
0.1264748388718733
 10
0.3638208787205954
 20
0.1291770602447331
 10
0.3636947001236237
 20
0.1323656817859131
 10
0.3634701003077634
 20
0.1349344533426215
 10
0.363154605984171
 20
0.1368677376028824
 10
0.3625723438951027
 20
0.1394367696922343
 10
0.3618749426405152
 20
0.1415940816892975
 10
0.3606179818780824
 20
0.1444392034322552
 10
0.3590567537216565
 20
0.1468446317287588
 10
0.3568937981077678
 20
0.1491687952543552
 10
0.3546983173058784
 20
0.1508265894429819
 10
0.3522914189555024
 20
0.1521430751627388
 10
0.3493803725381515
 20
0.1531345000143967
 10
0.3461708367307956
 20
0.1538397404647753
 10
0.3437314131924189
 20
0.1540997859472082
 10
0.3413895652180408
 20
0.1541810507181154
 10
0.3287208284736813
 20
0.1541810507181154
  0
ENDBLK
  5
1026
330
1024
100
AcDbEntity
  8
0
380
     2
100
AcDbBlockEnd
  0
BLOCK
  5
3084
330
2F70
100
AcDbEntity
  8
0
380
     2
100
AcDbBlockBegin
  2
175GRID
 70
     0
 10
0.0
 20
0.0
 30
0.0
  3
175GRID
  1

  0
LINE
  5
2F71
330
2F70
100
AcDbEntity
  8
0
  6
Continuous
 62
     7
370
    15
100
AcDbLine
 10
-1.237419622946923
 20
0.5204255233328592
 30
0.0
 11
0.7067705111987124
 21
1.023618957350177
 31
0.0
  0
LINE
  5
2F72
330
2F70
100
AcDbEntity
  8
0
  6
Continuous
 62
     7
370
    15
100
AcDbLine
 10
-1.211683433156878
 20
-0.385531055193971
 30
0.0
 11
-0.7320042119459647
 21
-0.5096811731833007
 31
0.0
  0
LINE
  5
2F73
330
2F70
100
AcDbEntity
  8
0
  6
Continuous
 62
     7
370
    15
100
AcDbLine
 10
-1.352819435423656
 20
-0.3634365107751876
 30
0.0
 11
-0.6739969336882706
 21
-0.5391287024684437
 31
0.0
  0
LINE
  5
2F74
330
2F70
100
AcDbEntity
  8
0
  6
Continuous
 62
     7
370
    15
100
AcDbLine
 10
-1.352819435423656
 20
-0.3547431785498971
 30
0.0
 11
-0.6739969336882706
 21
-0.5304353702431537
 31
0.0
  0
ARC
  5
2F75
330
2F70
100
AcDbEntity
  8
0
  6
Continuous
 62
     7
370
    15
100
AcDbCircle
 10
-1.109022987836251
 20
-0.3133320983806329
 30
0.0
 40
0.0210977296165392
100
AcDbArc
 50
113.2550005056115
 51
183.5250985672913
  0
LINE
  5
2F76
330
2F70
100
AcDbEntity
  8
0
  6
Continuous
 62
     7
370
    15
100
AcDbLine
 10
-1.045227993213849
 20
-0.3365908308665682
 30
0.0
 11
-1.130080799708306
 21
-0.3146293085154044
 31
0.0
  0
LINE
  5
2F77
330
2F70
100
AcDbEntity
  8
0
  6
Continuous
 62
     7
370
    15
100
AcDbLine
 10
-1.130080799708306
 20
-0.3986648524744565
 30
0.0
 11
-1.045227993213849
 21
-0.4206263748256207
 31
0.0
  0
LINE
  5
2F78
330
2F70
100
AcDbEntity
  8
Dimensions
390
F
100
AcDbLine
 10
-1.279625497221537
 20
0.726481942720735
 30
0.0
 11
-0.2570590970151336
 21
0.9714882980924155
 31
0.0
  0
LWPOLYLINE
  5
2F79
330
2F70
100
AcDbEntity
  8
0
  6
Continuous
 62
     7
370
    15
100
AcDbPolyline
 90
       38
 70
   128
 43
0.0
 10
-1.062198548679177
 20
0.2114998872269647
 10
-1.062808823430341
 20
0.2214523425073613
 10
-1.064622050544919
 20
0.2314344191431168
 10
-1.067586110632689
 20
0.2411589260631102
 10
-1.071615706105149
 20
0.2503460651388893
 10
-1.076594899942406
 20
0.2587315683090834
 10
-1.082380500715629
 20
0.2660741697257629
 10
-1.088805995186707
 20
0.2721626756210753
 10
-1.095686600952092
 20
0.2768219640547906
 10
-1.102824343976507
 20
0.2799179030975347
 10
-1.11001388282283
 20
0.2813615102677147
 10
-1.117048357771771
 20
0.281111214399421
 10
-1.123725513730228
 20
0.2791742363665262
 10
-1.129853101333299
 20
0.275606218980553
 10
-1.135254950072859
 20
0.27050994281552
 10
-1.139775647593332
 20
0.2640319132721061
 10
-1.143285119428
 20
0.2563585818719685
 10
-1.145682412259404
 20
0.2477105933987156
 10
-1.146898531364662
 20
0.2383367882439296
 10
-1.146898531364662
 20
0.2285068554873222
 10
-1.145682412259404
 20
0.218503540761426
 10
-1.143285119428
 20
0.208614622205264
 10
-1.139775647593332
 20
0.1991246545070009
 10
-1.135254950072859
 20
0.1903065397326937
 10
-1.129853101333299
 20
0.1824140609025386
 10
-1.123725513730228
 20
0.1756741707721483
 10
-1.117048357771771
 20
0.1702808424809161
 10
-1.11001388282283
 20
0.1663892344344569
 10
-1.102824343976507
 20
0.1641112624467746
 10
-1.095686600952092
 20
0.163512433821984
 10
-1.088805995186707
 20
0.164610058627852
 10
-1.082380500715629
 20
0.1673724838365325
 10
-1.076594899942406
 20
0.1717203059186643
 10
-1.071615706105149
 20
0.1775283887001793
 10
-1.067586110632689
 20
0.1846296556712952
 10
-1.064622050544919
 20
0.1928197841878107
 10
-1.062808823430341
 20
0.2018632654028685
 10
-1.062198548679177
 20
0.2114998872269647
  0
LINE
  5
2F7A
330
2F70
100
AcDbEntity
  8
0
  6
Continuous
 62
     7
370
    15
100
AcDbLine
 10
-1.091683201291226
 20
0.4662350186707185
 30
0.0
 11
-1.237419619446784
 21
0.5039543792544024
 31
0.0
  0
LINE
  5
2F7B
330
2F70
100
AcDbEntity
  8
0
  6
Continuous
 62
     7
370
    15
100
AcDbLine
 10
-1.096920279083654
 20
0.4606358019888131
 30
0.0
 11
-1.237419619446784
 21
0.4969997070991333
 31
0.0
  0
LINE
  5
2F7C
330
2F70
100
AcDbEntity
  8
0
  6
Continuous
 62
     7
370
    15
100
AcDbLine
 10
-1.108867585639758
 20
0.4586951298706037
 30
0.0
 11
-1.275603388980663
 21
0.501849531275699
 31
0.0
  0
LINE
  5
2F7D
330
2F70
100
AcDbEntity
  8
0
  6
Continuous
 62
     7
370
    15
100
AcDbLine
 10
-1.103776416938966
 20
0.4600128212921982
 30
0.0
 11
-1.270512220279872
 21
0.503167222697293
 31
0.0
  0
TEXT
  5
2F7E
330
2F70
100
AcDbEntity
  8
Dimensions
100
AcDbText
 10
-1.452490590245092
 20
-0.5908476823016216
 30
0.0
 40
0.065
  1
1.093 SOLID
100
AcDbText
  0
TEXT
  5
2F7F
330
2F70
100
AcDbEntity
  8
Dimensions
100
AcDbText
 10
-1.407405382168072
 20
-0.685809268195488
 30
0.0
 40
0.065
  1
KNOCKOUT
100
AcDbText
  0
LWPOLYLINE
  5
2F80
330
2F70
100
AcDbEntity
  8
Dimensions
380
     2
100
AcDbPolyline
 90
        2
 70
   128
 10
-1.12750399653415
 20
0.1427713366741283
 40
0.0
 41
0.04
 10
-1.144949796026642
 20
0.0645421834202438
 40
0.04
 41
0.04
  0
LINE
  5
2F81
330
2F70
100
AcDbEntity
  8
0
  6
Continuous
 62
     7
370
    15
100
AcDbLine
 10
-1.281226912357501
 20
0.4960904947488967
 30
0.0
 11
-1.281226912357501
 21
-0.3619414365281237
 31
0.0
  0
LINE
  5
2F82
330
2F70
100
AcDbEntity
  8
0
  6
Continuous
 62
     7
370
    15
100
AcDbLine
 10
-1.275603388980663
 20
-0.3747281619568561
 30
0.0
 11
-1.275603388980663
 21
0.501849531275699
 31
0.0
  0
LWPOLYLINE
  5
2F83
330
2F70
100
AcDbEntity
  8
Dimensions
390
F
100
AcDbPolyline
 90
        2
 70
     0
 43
0.0
 10
-1.127553173968205
 20
0.1425454018116747
 10
-1.267210671491968
 20
-0.5053553733435825
1001
ACAD
1000
DSTYLE
1002
{
1070
    77
1070
     0
1070
    41
1040
0.18
1070
    42
1040
0.06
1070
    43
1040
0.25
1070
    44
1040
0.06
1070
    73
1070
     0
1070
    74
1070
     0
1070
   140
1040
0.1
1070
   141
1040
0.05
1070
   147
1040
0.05
1070
   271
1070
     3
1070
   272
1070
     3
1002
}
  0
LINE
  5
2F84
330
2F70
100
AcDbEntity
  8
0
  6
Continuous
 62
     7
370
    15
100
AcDbLine
 10
-1.281226925580245
 20
-0.3362136735157328
 30
0.0
 11
-1.352819435423656
 21
-0.3547431785498971
 31
0.0
  0
LINE
  5
2F85
330
2F70
100
AcDbEntity
  8
0
  6
Continuous
 62
     7
370
    15
100
AcDbLine
 10
-1.352819435423656
 20
-0.3634365107751876
 30
0.0
 11
-1.352819435423656
 21
-0.3547431785498971
 31
0.0
  0
LINE
  5
2F86
330
2F70
100
AcDbEntity
  8
0
  6
Continuous
 62
     8
370
    15
100
AcDbLine
 10
-1.220449077204202
 20
-0.3704573714335071
 30
0.0
 11
-1.130080824598179
 21
-0.3938463962805816
 31
0.0
  0
LINE
  5
2F87
330
2F70
100
AcDbEntity
  8
0
  6
Continuous
 62
     7
370
    15
100
AcDbLine
 10
-1.220449077204202
 20
-0.3704573714335071
 30
0.0
 11
-1.220449077204202
 21
-0.3669800396058966
 31
0.0
  0
LINE
  5
2F88
330
2F70
100
AcDbEntity
  8
0
  6
Continuous
 62
     7
370
    15
100
AcDbLine
 10
-1.220449077204202
 20
-0.3669800396058966
 30
0.0
 11
-1.22299461410828
 21
-0.36632120617511
 31
0.0
  0
LINE
  5
2F89
330
2F70
100
AcDbEntity
  8
0
  6
Continuous
 62
     7
370
    15
100
AcDbLine
 10
-1.22299461410828
 20
-0.36632120617511
 30
0.0
 11
-1.22299461410828
 21
-0.388344314833339
 31
0.0
  0
LINE
  5
2F8A
330
2F70
100
AcDbEntity
  8
0
  6
Continuous
 62
     7
370
    15
100
AcDbLine
 10
-1.275603388980663
 20
-0.3747281619568561
 30
0.0
 11
-1.22299461410828
 21
-0.388344314833339
 31
0.0
  0
SPLINE
  5
2F8B
330
2F70
100
AcDbEntity
  8
0
  6
Continuous
 62
     7
370
    15
100
AcDbSpline
210
0.0
220
0.0
230
1.0
 70
     8
 71
     3
 72
     9
 73
     5
 74
     0
 42
0.0000000001
 43
0.0000000001
 40
0.0
 40
0.0
 40
0.0
 40
0.0
 40
0.5000005140367878
 40
0.9999999999999998
 40
0.9999999999999998
 40
0.9999999999999998
 40
0.9999999999999998
 10
-1.281226912357499
 20
-0.3619414365281237
 30
0.0
 10
-1.280964786660881
 20
-0.364144935674465
 30
0.0
 10
-1.280440535806604
 20
-0.3685519294364328
 30
0.0
 10
-1.277215770150878
 20
-0.3726694191944095
 30
0.0
 10
-1.275603388980663
 20
-0.3747281619568561
 30
0.0
  0
LINE
  5
2F8C
330
2F70
100
AcDbEntity
  8
0
  6
Continuous
 62
     7
370
    15
100
AcDbLine
 10
-1.21790344540749
 20
-0.387026623411745
 30
0.0
 11
-1.22299461410828
 21
-0.388344314833339
 31
0.0
  0
LINE
  5
2F8D
330
2F70
100
AcDbEntity
  8
0
  6
Continuous
 62
     7
370
    15
100
AcDbLine
 10
-1.21790344540749
 20
-0.387026623411745
 30
0.0
 11
-1.21790344540749
 21
-0.380610006488137
 31
0.0
  0
ARC
  5
2F8E
330
2F70
100
AcDbEntity
  8
0
  6
Continuous
 62
     7
370
    15
100
AcDbCircle
 10
-1.206889869709849
 20
-0.372657964394409
 30
0.0
 40
0.0137366195715855
100
AcDbArc
 50
170.7815518994048
 51
249.5761372791064
  0
LINE
  5
2F8F
330
2F70
100
AcDbEntity
  8
0
  6
Continuous
 62
     7
370
    15
100
AcDbLine
 10
-1.213848422598205
 20
-0.3846594136509127
 30
0.0
 11
-1.217903447740916
 21
-0.3857089313862159
 31
0.0
  0
LINE
  5
2F90
330
2F70
100
AcDbEntity
  8
0
  6
Continuous
 62
     7
370
    15
100
AcDbLine
 10
-1.130080799708306
 20
-0.3146293085154044
 30
0.0
 11
-1.130080799708306
 21
-0.3986648524744565
 31
0.0
  0
LINE
  5
2F91
330
2F70
100
AcDbEntity
  8
0
  6
Continuous
 62
     7
370
    15
100
AcDbLine
 10
-1.250599809991998
 20
0.5121899496328091
 30
0.0
 11
-1.250599809991998
 21
0.5052352774775404
 31
0.0
  0
LINE
  5
2F92
330
2F70
100
AcDbEntity
  8
0
  6
Continuous
 62
     7
370
    15
100
AcDbLine
 10
-1.250599827103783
 20
0.5096077868347644
 30
0.0
 11
-1.272712370553264
 21
0.5038846394543821
 31
0.0
  0
LWPOLYLINE
  5
2F93
330
2F70
100
AcDbEntity
  8
0
  6
Continuous
 62
     7
370
    15
100
AcDbPolyline
 90
        9
 70
   128
 43
0.0
 10
-1.237419622946923
 20
0.5204255233328592
 10
-1.243015964251021
 20
0.5186606023862295
 10
-1.247174402141581
 20
0.5166470124361151
 10
-1.249735137423243
 20
0.5144621360689441
 10
-1.250599809991999
 20
0.5121899496328091
 10
-1.249735145979137
 20
0.5099177601770002
 10
-1.247174402141581
 20
0.5077328940767232
 10
-1.243015944028002
 20
0.5057193029187399
 10
-1.237419619446782
 20
0.5039543792544024
  0
LINE
  5
2F94
330
2F70
100
AcDbEntity
  8
0
  6
Continuous
 62
     8
370
    15
100
AcDbLine
 10
-1.269663691903803
 20
0.5033868380013296
 30
0.0
 11
-1.250599817770082
 21
0.5083209317005739
 31
0.0
  0
LINE
  5
2F95
330
2F70
100
AcDbEntity
  8
0
  6
Continuous
 62
     7
370
    15
100
AcDbLine
 10
-1.237419619446784
 20
0.5039543792544024
 30
0.0
 11
-1.237419619446784
 21
0.4969997070991333
 31
0.0
  0
LWPOLYLINE
  5
2F96
330
2F70
100
AcDbEntity
  8
0
  6
Continuous
 62
     7
370
    15
100
AcDbPolyline
 90
        5
 70
   128
 43
0.0
 10
-1.237419619446782
 20
0.4969997070991333
 10
-1.243015944028002
 20
0.4987646307634704
 10
-1.247174402141581
 20
0.5007782219214541
 10
-1.249735145979137
 20
0.502963088021732
 10
-1.250599809991999
 20
0.5052352774775409
  0
LINE
  5
2F97
330
2F70
100
AcDbEntity
  8
0
  6
Continuous
 62
     7
370
    15
100
AcDbLine
 10
-1.270512220279872
 20
0.503167222697293
 30
0.0
 11
-1.275603388980663
 21
0.501849531275699
 31
0.0
  0
LINE
  5
2F98
330
2F70
100
AcDbEntity
  8
0
  6
Continuous
 62
     7
370
    15
100
AcDbLine
 10
-1.230207123194452
 20
0.4931747265649538
 30
0.0
 11
-1.226424013671785
 21
0.4941538673591293
 31
0.0
  0
LINE
  5
2F99
330
2F70
100
AcDbEntity
  8
0
  6
Continuous
 62
     7
370
    15
100
AcDbLine
 10
-1.269663691903803
 20
0.5033868380013296
 30
0.0
 11
-1.230207123194452
 21
0.4931747265649538
 31
0.0
  0
LINE
  5
2F9A
330
2F70
100
AcDbEntity
  8
0
  6
Continuous
 62
     7
370
    15
100
AcDbLine
 10
-1.230207123194452
 20
0.4927355120289927
 30
0.0
 11
-1.230207123194452
 21
0.4931747265649538
 31
0.0
  0
SPLINE
  5
2F9B
330
2F70
100
AcDbEntity
  8
0
  6
Continuous
 62
     7
370
    15
100
AcDbSpline
210
0.0
220
0.0
230
1.0
 70
     8
 71
     3
 72
     9
 73
     5
 74
     0
 42
0.0000000001
 43
0.0000000001
 40
0.0
 40
0.0
 40
0.0
 40
0.0
 40
0.5000005531308008
 40
1.0
 40
1.0
 40
1.0
 40
1.0
 10
-1.275603388980663
 20
0.501849531275699
 30
0.0
 10
-1.277215770111304
 20
0.5008172960445721
 30
0.0
 10
-1.280440528805154
 20
0.498752827866162
 30
0.0
 10
-1.280964784700042
 20
0.4969779384668223
 30
0.0
 10
-1.281226912357499
 20
0.4960904947488971
 30
0.0
  0
SPLINE
  5
2F9C
330
2F70
100
AcDbEntity
  8
0
  6
Continuous
 62
     7
370
    15
100
AcDbSpline
210
0.0
220
0.0
230
1.0
 70
     8
 71
     3
 72
    10
 73
     6
 74
     0
 42
0.0000000001
 43
0.0000000001
 40
0.0
 40
0.0
 40
0.0
 40
0.0
 40
0.3529140507438411
 40
0.8206244972981554
 40
1.0
 40
1.0
 40
1.0
 40
1.0
 10
-1.275246825242206
 20
0.501412672513907
 30
0.0
 10
-1.274778643178372
 20
0.5021937835074195
 30
0.0
 10
-1.273689988107925
 20
0.5040100864146977
 30
0.0
 10
-1.271487890058736
 20
0.5042134052513397
 30
0.0
 10
-1.270059616553758
 20
0.5035662364664804
 30
0.0
 10
-1.269663691903804
 20
0.5033868380013296
 30
0.0
  0
LINE
  5
2F9D
330
2F70
100
AcDbEntity
  8
0
  6
Continuous
 62
     7
370
    15
100
AcDbLine
 10
-1.217620268676363
 20
0.4894777720769011
 30
0.0
 11
-1.212988630777626
 21
0.4906765281751131
 31
0.0
  0
LINE
  5
2F9E
330
2F70
100
AcDbEntity
  8
Dimensions
380
     2
100
AcDbLine
 10
-1.280122898833468
 20
0.5839566687709024
 30
0.0
 11
-1.280122898833468
 21
0.806834373237713
 31
0.0
  0
LWPOLYLINE
  5
2F9F
330
2F70
100
AcDbEntity
  8
Dimensions
380
     2
100
AcDbPolyline
 90
        2
 70
   128
 10
-1.279852431983595
 20
0.684572505760281
 40
0.0
 41
0.04
 10
-1.357152402076803
 20
0.7057590808100782
 40
0.04
 41
0.04
  0
LINE
  5
2FA0
330
2F70
100
AcDbEntity
  8
Dimensions
380
     2
100
AcDbLine
 10
-1.419037452536379
 20
0.7232399008399715
 30
0.0
 11
-1.280024738279919
 21
0.6841608604892527
 31
0.0
  0
LWPOLYLINE
  5
2FA1
330
2F70
100
AcDbEntity
  8
Dimensions
380
     2
100
AcDbPolyline
 90
        2
 70
   128
 10
-1.279929827008396
 20
0.7272003108719352
 40
0.0
 41
0.04
 10
-1.201820657534868
 20
0.7451886210545183
 40
0.04
 41
0.04
  0
LINE
  5
2FA2
330
2F70
100
AcDbEntity
  8
Dimensions
 48
0.5
100
AcDbLine
 10
-1.188059043443825
 20
0.6561426217950359
 30
0.0
 11
-1.133059043443825
 21
0.6561426217950359
 31
0.0
  0
TEXT
  5
2FA3
330
2F70
100
AcDbEntity
  8
Dimensions
 48
0.5
100
AcDbText
 10
-1.186500301310292
 20
0.6706900292925742
 30
0.0
 40
0.055
  1
1
100
AcDbText
  0
TEXT
  5
2FA4
330
2F70
100
AcDbEntity
  8
Dimensions
 48
0.5
100
AcDbText
 10
-1.187705380450172
 20
0.5853124357999438
 30
0.0
 40
0.055
  1
4
100
AcDbText
  0
TEXT
  5
2FA5
330
2F70
100
AcDbEntity
  8
Dimensions
 48
0.5
100
AcDbText
 10
-1.253031072760585
 20
0.621547255775182
 30
0.0
 40
0.07
  1
2
100
AcDbText
  0
LINE
  5
2FA6
330
2F70
100
AcDbEntity
  8
0
  6
Continuous
 62
     7
370
    15
100
AcDbLine
 10
-0.7350909577088558
 20
0.3739421546957642
 30
0.0
 11
1.272738790252422
 21
0.8936067327915395
 31
0.0
  0
LINE
  5
2FA7
330
2F70
100
AcDbEntity
  8
0
  6
Continuous
 62
     7
370
    15
100
AcDbLine
 10
1.282921124542774
 20
0.8770620064430589
 30
0.0
 11
-0.7249086234185054
 21
0.3573974283472827
 31
0.0
  0
LINE
  5
2FA8
330
2F70
100
AcDbEntity
  8
Dimensions
380
     2
100
AcDbLine
 10
-1.107280280187239
 20
0.2206062184202437
 30
0.0
 11
-1.107280280187239
 21
0.6601377040099586
 31
0.0
  0
LINE
  5
2FA9
330
2F70
100
AcDbEntity
  8
Dimensions
380
     2
100
AcDbLine
 10
-0.9347197891939629
 20
0.1688438271458459
 30
0.0
 11
-0.9347197891939629
 21
0.7337060290463242
 31
0.0
  0
LINE
  5
2FAA
330
2F70
100
AcDbEntity
  8
Dimensions
380
     2
100
AcDbLine
 10
-0.7357129083852457
 20
0.2621432547389304
 30
0.0
 11
-0.7357129083852457
 21
0.7016747403286452
 31
0.0
  0
LINE
  5
2FAB
330
2F70
100
AcDbEntity
  8
0
  6
Continuous
 62
     7
370
    15
100
AcDbLine
 10
1.282921124542774
 20
0.0578603457413927
 30
0.0
 11
1.282921124542774
 21
0.8770620064430589
 31
0.0
  0
LINE
  5
2FAC
330
2F70
100
AcDbEntity
  8
Dimensions
390
F
100
AcDbLine
 10
1.640253508666908
 20
0.6353317415185149
 30
0.0
 11
1.640253508666908
 21
0.1275295847793174
 31
0.0
  0
TEXT
  5
2FAD
330
2F70
100
AcDbEntity
  8
Dimensions
 48
0.5
100
AcDbText
 10
1.388423086894711
 20
0.4809793269478267
 30
0.0
 40
0.07
  1
7
100
AcDbText
  0
TEXT
  5
2FAE
330
2F70
100
AcDbEntity
  8
Dimensions
 48
0.5
100
AcDbText
 10
1.463316128725917
 20
0.5324021713866767
 30
0.0
 40
0.055
  1
5
100
AcDbText
  0
LWPOLYLINE
  5
2FAF
330
2F70
100
AcDbEntity
  8
Dimensions
380
     2
100
AcDbPolyline
 90
        2
 70
   128
 10
-0.9364619488355749
 20
0.5322250788518215
 40
0.0
 41
0.04
 10
-1.013761918928782
 20
0.5534116539016188
 40
0.04
 41
0.04
  0
LINE
  5
2FB0
330
2F70
100
AcDbEntity
  8
Dimensions
380
     2
100
AcDbLine
 10
-1.050910840156678
 20
0.5639386913402165
 30
0.0
 11
-0.9366342551318993
 21
0.5318134335807932
 31
0.0
  0
TEXT
  5
2FB1
330
2F70
100
AcDbEntity
  8
Dimensions
 48
0.5
100
AcDbText
 10
-0.900236763120894
 20
0.4767831494768924
 30
0.0
 40
0.07
  1
2
100
AcDbText
  0
TEXT
  5
2FB2
330
2F70
100
AcDbEntity
  8
Dimensions
 48
0.5
100
AcDbText
 10
-0.8337059916706017
 20
0.5259259229942846
 30
0.0
 40
0.055
  1
1
100
AcDbText
  0
LINE
  5
2FB3
330
2F70
100
AcDbEntity
  8
Dimensions
380
     2
100
AcDbLine
 10
1.342779373097393
 20
0.0140689557042713
 30
0.0
 11
1.671362347726194
 21
0.1345424800392272
 31
0.0
  0
LWPOLYLINE
  5
2FB4
330
2F70
100
AcDbEntity
  8
Dimensions
380
     2
100
AcDbPolyline
 90
        2
 70
   128
 10
1.638566642891412
 20
0.1228927644528763
 40
0.0
 41
0.04
 10
1.638566642891412
 20
0.2030435993752366
 40
0.04
 41
0.04
  0
LINE
  5
2FB5
330
2F70
100
AcDbEntity
  8
Dimensions
390
F
100
AcDbLine
 10
1.052921691295512
 20
-0.2118399306260716
 30
0.0
 11
1.806262440600704
 21
-0.0096974020114089
 31
0.0
  0
LINE
  5
2FB6
330
2F70
100
AcDbEntity
  8
Dimensions
380
     2
100
AcDbLine
 10
1.296139280718456
 20
0.1396828118968276
 30
0.0
 11
1.867909835496273
 21
-0.0262357843907752
 31
0.0
  0
LINE
  5
2FB7
330
2F70
100
AcDbEntity
  8
0
  6
Continuous
 62
     7
370
    15
100
AcDbLine
 10
-0.6930888182607565
 20
-0.4970353229570641
 30
0.0
 11
1.251101315884884
 21
0.0061581110602544
 31
0.0
  0
LINE
  5
2FB8
330
2F70
100
AcDbEntity
  8
0
  6
Continuous
 62
     7
370
    15
100
AcDbLine
 10
-0.6739969336882706
 20
-0.5304353702431537
 30
0.0
 11
1.346560617409192
 21
-0.0074765942934176
 31
0.0
  0
LINE
  5
2FB9
330
2F70
100
AcDbEntity
  8
0
  6
Continuous
 62
     7
370
    15
100
AcDbLine
 10
-0.6739969336882706
 20
-0.5391287024684437
 30
0.0
 11
1.346560617409192
 21
-0.0161699265187076
 31
0.0
  0
LINE
  5
2FBA
330
2F70
100
AcDbEntity
  8
Dimensions
380
     2
100
AcDbLine
 10
-0.2519790321225486
 20
-0.5619815260012189
 30
0.0
 11
0.771927255841618
 21
-0.2872386472913888
 31
0.0
  0
LINE
  5
2FBB
330
2F70
100
AcDbEntity
  8
Dimensions
380
     2
100
AcDbLine
 10
-1.023064657578643
 20
-0.3335766324806677
 30
0.0
 11
-0.1737013408819887
 21
-0.5938702322190133
 31
0.0
  0
LINE
  5
2FBC
330
2F70
100
AcDbEntity
  8
0
  6
Continuous
 62
     7
370
    15
100
AcDbLine
 10
-0.6739969336882706
 20
-0.5391287024684437
 30
0.0
 11
-0.6739969336882706
 21
-0.5304353702431537
 31
0.0
  0
LWPOLYLINE
  5
2FBD
330
2F70
100
AcDbEntity
  8
Dimensions
380
     2
100
AcDbPolyline
 90
        2
 70
   128
 10
-0.2564865089213146
 20
-0.5633757042744332
 40
0.0
 41
0.04
 10
-0.1793926070677134
 20
-0.5414405280486379
 40
0.04
 41
0.04
  0
LINE
  5
2FBE
330
2F70
100
AcDbEntity
  8
0
  6
Continuous
 62
     7
370
    15
100
AcDbLine
 10
-0.7249086234185054
 20
0.3573974283472827
 30
0.0
 11
-0.7249086234185054
 21
-0.4618042323543832
 31
0.0
  0
LINE
  5
2FBF
330
2F70
100
AcDbEntity
  8
0
  6
Continuous
 62
     7
370
    15
100
AcDbLine
 10
-0.7299997905636815
 20
0.3587151193662543
 30
0.0
 11
-0.7299997905636815
 21
-0.4604865413354116
 31
0.0
  0
LINE
  5
2FC0
330
2F70
100
AcDbEntity
  8
0
  6
Continuous
 62
     7
370
    15
100
AcDbLine
 10
-0.7512129925761997
 20
-0.4919046067845727
 30
0.0
 11
-0.7512129925761997
 21
0.3661273096173625
 31
0.0
  0
LINE
  5
2FC1
330
2F70
100
AcDbEntity
  8
0
  6
Continuous
 62
     8
370
    15
100
AcDbLine
 10
-1.038864026504299
 20
-0.4174550408605487
 30
0.0
 11
-0.7512129925761997
 21
-0.4919046067845727
 31
0.0
  0
LINE
  5
2FC2
330
2F70
100
AcDbEntity
  8
0
  6
Continuous
 62
     7
370
    15
100
AcDbLine
 10
-0.9773457421847222
 20
-0.208906059684562
 30
0.0
 11
-0.9773457421847222
 21
-0.2929416078936389
 31
0.0
  0
LINE
  5
2FC3
330
2F70
100
AcDbEntity
  8
0
  6
Continuous
 62
     7
370
    15
100
AcDbLine
 10
-0.9709817813087369
 20
-0.2072589454075695
 30
0.0
 11
-0.9709817813087369
 21
-0.2912944936166459
 31
0.0
  0
LINE
  5
2FC4
330
2F70
100
AcDbEntity
  8
0
  6
Continuous
 62
     7
370
    15
100
AcDbLine
 10
-1.06219854867918
 20
-0.2709800855424751
 30
0.0
 11
-1.06219854867918
 21
-0.1869445373333986
 31
0.0
  0
LWPOLYLINE
  5
2FC5
330
2F70
100
AcDbEntity
  8
0
  6
Continuous
 62
     7
370
    15
100
AcDbPolyline
 90
       18
 70
   128
 43
0.0
 10
-0.9892675673463138
 20
-0.2419847390876422
 10
-0.989894991218712
 20
-0.2372373723671175
 10
-0.9916925377144565
 20
-0.2328063842019028
 10
-0.9944174310301683
 20
-0.2292901976860082
 10
-0.997701649530768
 20
-0.2271637100196262
 10
-1.001101655712037
 20
-0.2267140981513664
 10
-1.004158256340808
 20
-0.2280020866997625
 10
-1.006458628013881
 20
-0.2308537486026769
 10
-1.007692120249217
 20
-0.234883904433032
 10
-1.007692120249217
 20
-0.2395483063646129
 10
-1.006458628013881
 20
-0.2442169817600486
 10
-1.004158256340808
 20
-0.2482593866624767
 10
-1.001101655712037
 20
-0.2511295881228679
 10
-0.997701649530768
 20
-0.2524399489609665
 10
-0.9944174310301683
 20
-0.2520134978870505
 10
-0.9916925377144565
 20
-0.2499078199431142
 10
-0.989894991218712
 20
-0.2464073103130095
 10
-0.9892675673463138
 20
-0.2419847390876422
  0
ARC
  5
2FC6
330
2F70
100
AcDbEntity
  8
0
  6
Continuous
 62
     7
370
    15
100
AcDbCircle
 10
-0.9863474216868457
 20
-0.2364193852469825
 30
0.0
 40
0.0153784266585381
100
AcDbArc
 50
141.8479005202162
 51
247.1736463135616
  0
ARC
  5
2FC7
330
2F70
100
AcDbEntity
  8
0
  6
Continuous
 62
     7
370
    15
100
AcDbCircle
 10
-0.9864059108340903
 20
-0.2366711923925795
 30
0.0
 40
0.0151237129419342
100
AcDbArc
 50
175.6651182554454
 51
247.0077965966641
  0
LINE
  5
2FC8
330
2F70
100
AcDbEntity
  8
0
  6
Continuous
 62
     7
370
    15
100
AcDbLine
 10
-1.068562509555167
 20
-0.2813205400135543
 30
0.0
 11
-0.9837097030607129
 21
-0.3032820623647185
 31
0.0
  0
LINE
  5
2FC9
330
2F70
100
AcDbEntity
  8
0
  6
Continuous
 62
     7
370
    15
100
AcDbLine
 10
-0.9773457421847222
 20
-0.2929416078936389
 30
0.0
 11
-1.06219854867918
 21
-0.2709800855424751
 31
0.0
  0
LINE
  5
2FCA
330
2F70
100
AcDbEntity
  8
0
  6
Continuous
 62
     7
370
    15
100
AcDbLine
 10
-0.9837097030607129
 20
-0.3032820623647185
 30
0.0
 11
-1.032500072239681
 21
-0.3159099391258193
 31
0.0
  0
LINE
  5
2FCB
330
2F70
100
AcDbEntity
  8
0
  6
Continuous
 62
     7
370
    15
100
AcDbLine
 10
-0.9837097030607129
 20
-0.3119753855587062
 30
0.0
 11
-1.032500072239681
 21
-0.324603262319807
 31
0.0
  0
ARC
  5
2FCC
330
2F70
100
AcDbEntity
  8
0
  6
Continuous
 62
     7
370
    15
100
AcDbCircle
 10
-1.024170181341796
 20
-0.3352936207317967
 30
0.0
 40
0.0210977296165392
100
AcDbArc
 50
113.255000505611
 51
183.5250985672913
  0
LINE
  5
2FCD
330
2F70
100
AcDbEntity
  8
0
  6
Continuous
 62
     7
370
    15
100
AcDbLine
 10
-1.038864032726767
 20
-0.3349437166902307
 30
0.0
 11
-1.045227993213849
 21
-0.3365908308665682
 31
0.0
  0
LINE
  5
2FCE
330
2F70
100
AcDbEntity
  8
0
  6
Continuous
 62
     7
370
    15
100
AcDbLine
 10
-1.032500072239681
 20
-0.324603262319807
 30
0.0
 11
-1.032500072239681
 21
-0.3159099391258193
 31
0.0
  0
ARC
  5
2FCF
330
2F70
100
AcDbEntity
  8
0
  6
Continuous
 62
     7
370
    15
100
AcDbCircle
 10
-1.028335114422995
 20
-0.334295111267608
 30
0.0
 40
0.0105488771744566
100
AcDbArc
 50
113.255044756684
 51
183.5250963627983
  0
ARC
  5
2FD0
330
2F70
100
AcDbEntity
  8
0
  6
Continuous
 62
     7
370
    15
100
AcDbCircle
 10
-1.072727473535161
 20
-0.2716286868702848
 30
0.0
 40
0.0105488834624972
100
AcDbArc
 50
293.2550665156409
 51
3.525071975929899
  0
LINE
  5
2FD1
330
2F70
100
AcDbEntity
  8
0
  6
Continuous
 62
     7
370
    15
100
AcDbLine
 10
-1.117352878734138
 20
-0.2939484167746551
 30
0.0
 11
-1.068562509555167
 21
-0.2813205400135543
 31
0.0
  0
LINE
  5
2FD2
330
2F70
100
AcDbEntity
  8
0
  6
Continuous
 62
     7
370
    15
100
AcDbLine
 10
-1.117352878734138
 20
-0.2939484167746551
 30
0.0
 11
-1.032500072239681
 21
-0.3159099391258193
 31
0.0
  0
LINE
  5
2FD3
330
2F70
100
AcDbEntity
  8
0
  6
Continuous
 62
     7
370
    15
100
AcDbLine
 10
-1.038864032726767
 20
-0.4189792606492829
 30
0.0
 11
-1.045227993213849
 21
-0.4206263748256207
 31
0.0
  0
LINE
  5
2FD4
330
2F70
100
AcDbEntity
  8
0
  6
Continuous
 62
     7
370
    15
100
AcDbLine
 10
-1.045227993213849
 20
-0.4206263748256207
 30
0.0
 11
-1.045227993213849
 21
-0.3365908308665682
 31
0.0
  0
LINE
  5
2FD5
330
2F70
100
AcDbEntity
  8
0
  6
Continuous
 62
     7
370
    15
100
AcDbLine
 10
-1.038864032726767
 20
-0.4189792606492829
 30
0.0
 11
-1.038864032726767
 21
-0.3349437166902307
 31
0.0
  0
LINE
  5
2FD6
330
2F70
100
AcDbEntity
  8
0
  6
Continuous
 62
     7
370
    15
100
AcDbLine
 10
-0.9837097030607129
 20
-0.3032820623647185
 30
0.0
 11
-0.9837097030607129
 21
-0.3119753855587062
 31
0.0
  0
LINE
  5
2FD7
330
2F70
100
AcDbEntity
  8
0
  6
Continuous
 62
     7
370
    15
100
AcDbLine
 10
-0.9773457421847222
 20
-0.2929416078936389
 30
0.0
 11
-0.9709817813087369
 21
-0.2912944936166459
 31
0.0
  0
ARC
  5
2FD8
330
2F70
100
AcDbEntity
  8
0
  6
Continuous
 62
     7
370
    15
100
AcDbCircle
 10
-0.9878746670407032
 20
-0.2935902092214482
 30
0.0
 40
0.0105488834624972
100
AcDbArc
 50
293.2550665156415
 51
3.525071975930179
  0
ARC
  5
2FD9
330
2F70
100
AcDbEntity
  8
0
  6
Continuous
 62
     7
370
    15
100
AcDbCircle
 10
-0.9920395857908488
 20
-0.2925917081749061
 30
0.0
 40
0.0210977225125631
100
AcDbArc
 50
293.2549846534532
 51
3.525111791539284
  0
LINE
  5
2FDA
330
2F70
100
AcDbEntity
  8
0
  6
Continuous
 62
     7
370
    15
100
AcDbLine
 10
-1.055834587803191
 20
-0.1852974230564057
 30
0.0
 11
-0.9709817813087369
 21
-0.2072589454075695
 31
0.0
  0
LINE
  5
2FDB
330
2F70
100
AcDbEntity
  8
0
  6
Continuous
 62
     7
370
    15
100
AcDbLine
 10
-1.06219854867918
 20
-0.1869445373333986
 30
0.0
 11
-0.9773457421847222
 21
-0.208906059684562
 31
0.0
  0
LINE
  5
2FDC
330
2F70
100
AcDbEntity
  8
0
  6
Continuous
 62
     7
370
    15
100
AcDbLine
 10
-1.055834587803191
 20
-0.1852974230564057
 30
0.0
 11
-1.06219854867918
 21
-0.1869445373333986
 31
0.0
  0
LWPOLYLINE
  5
2FDD
330
2F70
100
AcDbEntity
  8
0
  6
Continuous
 62
     7
370
    15
100
AcDbPolyline
 90
       18
 70
   128
 43
0.0
 10
-1.031693970593543
 20
-0.2310039779120601
 10
-1.032321394465942
 20
-0.2262566111915354
 10
-1.034118940961683
 20
-0.2218256230263207
 10
-1.036843834277394
 20
-0.2183094365104261
 10
-1.040128052777994
 20
-0.2161829488440436
 10
-1.043528058959264
 20
-0.2157333369757848
 10
-1.046584659588035
 20
-0.2170213255241808
 10
-1.048885056150979
 20
-0.2198729809851221
 10
-1.050118523496443
 20
-0.2239031432574503
 10
-1.050118523496443
 20
-0.2285675451890308
 10
-1.048885056150979
 20
-0.2332362141424937
 10
-1.046584659588035
 20
-0.237278625486895
 10
-1.043528058959264
 20
-0.2401488269472853
 10
-1.040128052777994
 20
-0.2414591877853844
 10
-1.036843834277394
 20
-0.2410327367114684
 10
-1.034118940961683
 20
-0.2389270587675321
 10
-1.032321394465942
 20
-0.2354265491374283
 10
-1.031693970593543
 20
-0.2310039779120601
  0
ARC
  5
2FDE
330
2F70
100
AcDbEntity
  8
0
  6
Continuous
 62
     7
370
    15
100
AcDbCircle
 10
-1.028773813888507
 20
-0.2254386059132987
 30
0.0
 40
0.0153784476795983
100
AcDbArc
 50
141.8480175540586
 51
247.1736346286419
  0
ARC
  5
2FDF
330
2F70
100
AcDbEntity
  8
0
  6
Continuous
 62
     7
370
    15
100
AcDbCircle
 10
-1.032461168237245
 20
-0.223755706402692
 30
0.0
 40
0.0114789452488607
100
AcDbArc
 50
137.0783795634436
 51
183.9542170222255
  0
ARC
  5
2FE0
330
2F70
100
AcDbEntity
  8
0
  6
Continuous
 62
     7
370
    15
100
AcDbCircle
 10
-1.028832282010192
 20
-0.2256903862858794
 30
0.0
 40
0.0151237668308106
100
AcDbArc
 50
175.6652799638846
 51
247.0077512375381
  0
LWPOLYLINE
  5
2FE1
330
2F70
100
AcDbEntity
  8
0
  6
Continuous
 62
     7
370
    15
100
AcDbPolyline
 90
        3
 70
   128
 43
0.0
 10
-1.038821618830677
 20
-0.2232295954043217
 10
-1.038194170068408
 20
-0.218807013620828
 10
-1.037733533222706
 20
-0.217551267270506
  0
ARC
  5
2FE2
330
2F70
100
AcDbEntity
  8
0
  6
Continuous
 62
     7
370
    15
100
AcDbCircle
 10
-1.021817397555786
 20
-0.2236776505589946
 30
0.0
 40
0.0170101232972377
100
AcDbArc
 50
178.4906259393292
 51
229.8646663779892
  0
LINE
  5
2FE3
330
2F70
100
AcDbEntity
  8
0
  6
Continuous
 62
     7
370
    15
100
AcDbLine
 10
-0.9709817813087369
 20
-0.2072589454075695
 30
0.0
 11
-0.9773457421847222
 21
-0.208906059684562
 31
0.0
  0
ARC
  5
2FE4
330
2F70
100
AcDbEntity
  8
0
  6
Continuous
 62
     7
370
    15
100
AcDbCircle
 10
-0.9900349072726655
 20
-0.2347364148748641
 30
0.0
 40
0.0114787825531427
100
AcDbArc
 50
137.0780275029792
 51
183.9545690826893
  0
LWPOLYLINE
  5
2FE5
330
2F70
100
AcDbEntity
  8
0
  6
Continuous
 62
     7
370
    15
100
AcDbPolyline
 90
        3
 70
   128
 43
0.0
 10
-0.9963951906935797
 20
-0.2342103630218761
 10
-0.9957677668211815
 20
-0.2297877747964101
 10
-0.9953071299754796
 20
-0.2285320284460881
  0
ARC
  5
2FE6
330
2F70
100
AcDbEntity
  8
0
  6
Continuous
 62
     7
370
    15
100
AcDbCircle
 10
-0.979391037837562
 20
-0.2346584629521589
 30
0.0
 40
0.0170100560815769
100
AcDbArc
 50
178.4904691014554
 51
229.8646672684504
  0
LWPOLYLINE
  5
2FE7
330
2F70
100
AcDbEntity
  8
0
  6
Continuous
 62
     7
370
    15
100
AcDbPolyline
 90
       17
 70
   128
 43
0.0
 10
-0.6851126537035839
 20
-0.2637283035325773
 10
-0.6857198016646784
 20
-0.2597158479134554
 10
-0.6874488170113935
 20
-0.2566285536050574
 10
-0.6900364706887246
 20
-0.254936413021758
 10
-0.6930888182607582
 20
-0.2548970349169308
 10
-0.6961411627215526
 20
-0.25651642358434
 10
-0.6987288195101158
 20
-0.2595480330805304
 10
-0.7004578317455988
 20
-0.2635303307856911
 10
-0.7010649828179325
 20
-0.267857070121114
 10
-0.7004578317455988
 20
-0.2718695079348912
 10
-0.6987288195101158
 20
-0.2749568030485352
 10
-0.6961411627215526
 20
-0.2766489428265881
 10
-0.6930888182607582
 20
-0.2766883217366622
 10
-0.6900364706887246
 20
-0.2750689322640065
 10
-0.6874488170113935
 20
-0.2720373235730622
 10
-0.6857198016646784
 20
-0.2680550250626559
 10
-0.6851126537035839
 20
-0.2637283035325773
  0
ARC
  5
2FE8
330
2F70
100
AcDbEntity
  8
0
  6
Continuous
 62
     7
370
    15
100
AcDbCircle
 10
-0.7028862490090777
 20
-0.263525223755146
 30
0.0
 40
0.0127313134539022
100
AcDbArc
 50
291.1577656124896
 51
5.022607055670688
  0
ARC
  5
2FE9
330
2F70
100
AcDbEntity
  8
0
  6
Continuous
 62
     7
370
    15
100
AcDbCircle
 10
-0.7028595769772146
 20
-0.2634950254859794
 30
0.0
 40
0.0096915068016269
100
AcDbArc
 50
286.5027253561605
 51
5.706340324287335
  0
ARC
  5
2FEA
330
2F70
100
AcDbEntity
  8
0
  6
Continuous
 62
     7
370
    15
100
AcDbCircle
 10
-0.7105169108618981
 20
-0.2612709403965923
 30
0.0
 40
0.0122097821194035
100
AcDbArc
 50
321.0308949907763
 51
0.268564415552005
  0
LWPOLYLINE
  5
2FEB
330
2F70
100
AcDbEntity
  8
0
  6
Continuous
 62
     7
370
    15
100
AcDbPolyline
 90
        9
 70
   128
 43
0.0
 10
-0.7249086234185072
 20
-0.4618042323543832
 10
-0.7242972150114931
 20
-0.4701259134261711
 10
-0.7224864846621167
 20
-0.4778113080064879
 10
-0.7195460193944072
 20
-0.4845650722331816
 10
-0.7155888184456636
 20
-0.4901276611685077
 10
-0.7107669550396736
 20
-0.4942853081100198
 10
-0.705265730378244
 20
-0.4968782366508875
 10
-0.6992965543602239
 20
-0.4978068038705059
 10
-0.6930888182607582
 20
-0.4970353229570641
  0
LWPOLYLINE
  5
2FEC
330
2F70
100
AcDbEntity
  8
0
  6
Continuous
 62
     7
370
    15
100
AcDbPolyline
 90
        8
 70
   128
 43
0.0
 10
-0.7094553117201059
 20
-0.4958154854995258
 10
-0.7103568975234183
 20
-0.4955605456319168
 10
-0.7158581221848479
 20
-0.4929676170910487
 10
-0.7206799855908379
 20
-0.4888099701495361
 10
-0.7246371865395816
 20
-0.48324738121421
 10
-0.7275776518072874
 20
-0.4764936169875163
 10
-0.7293883821566674
 20
-0.4688082224071999
 10
-0.7299997905636815
 20
-0.4604865413354116
  0
LINE
  5
2FED
330
2F70
100
AcDbEntity
  8
0
  6
Continuous
 62
     8
370
    15
100
AcDbLine
 10
-0.7240600938757265
 20
-0.5023366057121801
 30
0.0
 11
-0.7240600938757265
 21
-0.4842380504637452
 31
0.0
  0
LINE
  5
2FEE
330
2F70
100
AcDbEntity
  8
0
  6
Continuous
 62
     7
370
    15
100
AcDbLine
 10
-0.7094553117201059
 20
-0.4958154854995258
 30
0.0
 11
-0.7043641445749316
 21
-0.497133176518497
 31
0.0
  0
LINE
  5
2FEF
330
2F70
100
AcDbEntity
  8
0
  6
Continuous
 62
     7
370
    15
100
AcDbLine
 10
-0.7240600938757265
 20
-0.5023366057121801
 30
0.0
 11
-0.704157707983466
 21
-0.497185489200283
 31
0.0
  0
SPLINE
  5
2FF0
330
2F70
100
AcDbEntity
  8
0
  6
Continuous
 62
     7
370
    15
100
AcDbSpline
210
0.0
220
0.0
230
1.0
 70
     8
 71
     3
 72
    10
 73
     6
 74
     0
 42
0.0000000001
 43
0.0000000001
 40
0.0
 40
0.0
 40
0.0
 40
0.0
 40
0.4063587103217445
 40
0.8127174114693483
 40
1.0
 40
1.0
 40
1.0
 40
1.0
 10
-0.7240600938757283
 20
-0.503495717029721
 30
0.0
 10
-0.7262904174508869
 20
-0.5033028725277
 30
0.0
 10
-0.7307510645508551
 20
-0.5029171835280107
 30
0.0
 10
-0.735995108630668
 20
-0.5007602726691829
 30
0.0
 10
-0.7384772607498711
 20
-0.4986453938398934
 30
0.0
 10
-0.7392603327532719
 20
-0.497978189606521
 30
0.0
  0
LINE
  5
2FF1
330
2F70
100
AcDbEntity
  8
0
  6
Continuous
 62
     7
370
    15
100
AcDbLine
 10
-0.7240600938757265
 20
-0.503495717029721
 30
0.0
 11
-0.7240600938757265
 21
-0.5104503828099443
 31
0.0
  0
LINE
  5
2FF2
330
2F70
100
AcDbEntity
  8
0
  6
Continuous
 62
     7
370
    15
100
AcDbLine
 10
-0.7015252214256975
 20
-0.497663262860697
 30
0.0
 11
-0.7240600938757265
 21
-0.503495717029721
 31
0.0
  0
LINE
  5
2FF3
330
2F70
100
AcDbEntity
  8
0
  6
Continuous
 62
     7
370
    15
100
AcDbLine
 10
-0.6739969336882706
 20
-0.4974930834954133
 30
0.0
 11
-0.6739969336882706
 21
-0.492093979821779
 31
0.0
  0
LINE
  5
2FF4
330
2F70
100
AcDbEntity
  8
0
  6
Continuous
 62
     7
370
    15
100
AcDbLine
 10
-0.6739969336882706
 20
-0.4974930834954133
 30
0.0
 11
-0.7240600938757265
 21
-0.5104503828099443
 31
0.0
  0
LINE
  5
2FF5
330
2F70
100
AcDbEntity
  8
0
  6
Continuous
 62
     8
370
    15
100
AcDbLine
 10
-0.7240600938757265
 20
-0.503495717029721
 30
0.0
 11
-0.7352143154105005
 21
-0.500608792063229
 31
0.0
  0
SPLINE
  5
2FF6
330
2F70
100
AcDbEntity
  8
0
  6
Continuous
 62
     7
370
    15
100
AcDbSpline
210
0.0
220
0.0
230
1.0
 70
     8
 71
     3
 72
    12
 73
     8
 74
     0
 42
0.0000000001
 43
0.0000000001
 40
0.0
 40
0.0
 40
0.0
 40
0.0
 40
0.2280720419030571
 40
0.4562157594088636
 40
0.6843596799728106
 40
0.9125034858960543
 40
1.0
 40
1.0
 40
1.0
 40
1.0
 10
-0.7512129925761997
 20
-0.4919046067845727
 30
0.0
 10
-0.7494220135358916
 20
-0.4930737203516249
 30
0.0
 10
-0.7458394926089867
 20
-0.4954123148999856
 30
0.0
 10
-0.7389547698183137
 20
-0.4982121421624779
 30
0.0
 10
-0.7320475775302527
 20
-0.5003954511913902
 30
0.0
 10
-0.7270326381815373
 20
-0.5016482862455454
 30
0.0
 10
-0.7247052526475315
 20
-0.5021872133748362
 30
0.0
 10
-0.7240600938757283
 20
-0.5023366057121801
 30
0.0
  0
SPLINE
  5
2FF7
330
2F70
100
AcDbEntity
  8
0
  6
Continuous
 62
     7
370
    15
100
AcDbSpline
210
0.0
220
0.0
230
1.0
 70
     8
 71
     3
 72
    11
 73
     7
 74
     0
 42
0.0000000001
 43
0.0000000001
 40
0.0
 40
0.0
 40
0.0
 40
0.0
 40
0.2500000343534618
 40
0.5000000666977569
 40
0.7499999656464859
 40
1.0
 40
1.0
 40
1.0
 40
1.0
 10
-0.7240600938757283
 20
-0.5104503828099443
 30
0.0
 10
-0.7269704829560375
 20
-0.5103392338954956
 30
0.0
 10
-0.7327912610932721
 20
-0.5101169360674907
 30
0.0
 10
-0.7406730020455328
 20
-0.5061112641000749
 30
0.0
 10
-0.7472066527328814
 20
-0.4999151616541231
 30
0.0
 10
-0.7498775457206613
 20
-0.4945747922231641
 30
0.0
 10
-0.7512129925761997
 20
-0.4919046067845727
 30
0.0
  0
LINE
  5
2FF8
330
2F70
100
AcDbEntity
  8
0
  6
Continuous
 62
     7
370
    15
100
AcDbLine
 10
-0.7299997905636815
 20
-0.4604865413354116
 30
0.0
 11
-0.7249086234185054
 21
-0.4618042323543832
 31
0.0
  0
ARC
  5
2FF9
330
2F70
100
AcDbEntity
  8
0
  6
Continuous
 62
     7
370
    15
100
AcDbCircle
 10
-0.6998181611951502
 20
-0.2616662928943563
 30
0.0
 40
0.0096431090417925
100
AcDbArc
 50
355.5731255493549
 51
44.81739582752021
  0
ARC
  5
2FFA
330
2F70
100
AcDbEntity
  8
0
  6
Continuous
 62
     7
370
    15
100
AcDbCircle
 10
-0.700479419917869
 20
-0.2618903329541191
 30
0.0
 40
0.0072915598903611
100
AcDbArc
 50
354.9560945470279
 51
50.40453261005723
  0
LINE
  5
2FFB
330
2F70
100
AcDbEntity
  8
0
  6
Continuous
 62
     7
370
    15
100
AcDbLine
 10
-0.6983072628733816
 20
-0.2612137092877882
 30
0.0
 11
-0.6984960245450829
 21
-0.2591823983928334
 31
0.0
  0
LINE
  5
2FFC
330
2F70
100
AcDbEntity
  8
0
  6
Continuous
 62
     7
370
    15
100
AcDbLine
 10
-0.7350909577088558
 20
0.3669874825404955
 30
0.0
 11
-0.9213064080364041
 21
0.4151835875776078
 31
0.0
  0
LINE
  5
2FFD
330
2F70
100
AcDbEntity
  8
0
  6
Continuous
 62
     7
370
    15
100
AcDbLine
 10
-0.7512129925761997
 20
0.3661273096173625
 30
0.0
 11
-0.917948783472168
 21
0.4092817078014713
 31
0.0
  0
LINE
  5
2FFE
330
2F70
100
AcDbEntity
  8
0
  6
Continuous
 62
     7
370
    15
100
AcDbLine
 10
-0.7461218238754093
 20
0.3674450010389574
 30
0.0
 11
-0.9128576147713776
 21
0.4105993992230661
 31
0.0
  0
LINE
  5
2FFF
330
2F70
100
AcDbEntity
  8
0
  6
Continuous
 62
     7
370
    15
100
AcDbLine
 10
-0.7350909577088558
 20
0.3739421546957642
 30
0.0
 11
-0.9284650087728607
 21
0.4239910419397557
 31
0.0
  0
LWPOLYLINE
  5
3000
330
2F70
100
AcDbEntity
  8
0
  6
Continuous
 62
     7
370
    15
100
AcDbPolyline
 90
       20
 70
   128
 43
0.0
 10
-1.083227235076453
 20
0.1660417193998569
 10
-1.079160479026338
 20
0.1674341195991125
 10
-1.073032841643524
 20
0.1710021241011401
 10
-1.067630992903968
 20
0.1760984002661736
 10
-1.063110320273363
 20
0.1825764362515607
 10
-1.059600848438694
 20
0.1902497676516983
 10
-1.057203580497166
 20
0.1988977625669235
 10
-1.055987436502032
 20
0.2082715612797372
 10
-1.055987436502032
 20
0.2181014940363442
 10
-1.057203580497166
 20
0.2281048152042127
 10
-1.059600848438694
 20
0.2379937273184023
 10
-1.063110320273363
 20
0.2474836950166659
 10
-1.067630992903968
 20
0.2563018033489994
 10
-1.073032841643524
 20
0.2641942821791545
 10
-1.079160479026338
 20
0.2709341851934908
 10
-1.085837585205055
 20
0.2763275006007775
 10
-1.09287210993374
 20
0.2802191215311818
 10
-1.100061648780055
 20
0.2824970935188644
 10
-1.107199366914603
 20
0.2830959157016819
 10
-1.113294747024383
 20
0.2822137379588296
  0
LWPOLYLINE
  5
3001
330
2F70
100
AcDbEntity
  8
0
  6
Continuous
 62
     7
370
    15
100
AcDbPolyline
 90
       38
 70
   128
 43
0.0
 10
-0.8924929356902673
 20
0.1675768425246371
 10
-0.8931031855515598
 20
0.1775292913630606
 10
-0.8949164375560094
 20
0.1875113744407892
 10
-0.8978804727539042
 20
0.1972358749188094
 10
-0.9019100682263676
 20
0.2064230139945895
 10
-0.9068892869534934
 20
0.2148085236067558
 10
-0.9126748628368481
 20
0.2221511185814622
 10
-0.9191003821977972
 20
0.2282396309187478
 10
-0.9259809630733109
 20
0.2328989129104895
 10
-0.9331187060977299
 20
0.235994851953234
 10
-0.9403082449440489
 20
0.2374384591234144
 10
-0.9473427447828619
 20
0.2371881696970939
 10
-0.9540198509615755
 20
0.2352511787802536
 10
-0.9601474883443898
 20
0.2316831742782255
 10
-0.9655493370839458
 20
0.2265868981131924
 10
-0.9700700346044222
 20
0.2201088685697785
 10
-0.9735794815492155
 20
0.2124355307276682
 10
-0.9759767743806193
 20
0.2037875422544153
 10
-0.9771928934858813
 20
0.1944137370996284
 10
-0.9771928934858813
 20
0.1845838043430214
 10
-0.9759767743806193
 20
0.1745804896171257
 10
-0.9735794815492155
 20
0.1646915710609638
 10
-0.9700700346044222
 20
0.1552016098046733
 10
-0.9655493370839458
 20
0.1463834950303662
 10
-0.9601474883443898
 20
0.1384910162002111
 10
-0.9540198509615755
 20
0.1317511131858744
 10
-0.9473427447828619
 20
0.1263577977785881
 10
-0.9403082449440489
 20
0.1224661832901561
 10
-0.9331187060977299
 20
0.1201882113024739
 10
-0.9259809630733109
 20
0.1195893826776837
 10
-0.9191003821977972
 20
0.1206870139255245
 10
-0.9126748628368481
 20
0.1234494326922326
 10
-0.9068892869534934
 20
0.1277972612163363
 10
-0.9019100682263676
 20
0.1336053375558786
 10
-0.8978804727539042
 20
0.1407066045269945
 10
-0.8949164375560094
 20
0.1488967394854832
 10
-0.8931031855515598
 20
0.1579402142585686
 10
-0.8924929356902673
 20
0.1675768425246371
  0
LINE
  5
3002
330
2F70
100
AcDbEntity
  8
0
  6
Continuous
 62
     7
370
    15
100
AcDbLine
 10
-1.089591195952442
 20
0.1643946051228644
 30
0.0
 11
-1.083227235076453
 21
0.1660417193998569
 31
0.0
  0
LINE
  5
3003
330
2F70
100
AcDbEntity
  8
0
  6
Continuous
 62
     7
370
    15
100
AcDbLine
 10
-0.9198855580736609
 20
0.1204715539785637
 30
0.0
 11
-0.913521597197672
 21
0.1221186682555566
 31
0.0
  0
LINE
  5
3004
330
2F70
100
AcDbEntity
  8
0
  6
Continuous
 62
     7
370
    15
100
AcDbLine
 10
-0.9435891340354736
 20
0.2382906932565021
 30
0.0
 11
-0.9499530949114607
 21
0.2366435789795087
 31
0.0
  0
LWPOLYLINE
  5
3005
330
2F70
100
AcDbEntity
  8
0
  6
Continuous
 62
     7
370
    15
100
AcDbPolyline
 90
       20
 70
   128
 43
0.0
 10
-0.913521597197672
 20
0.1221186682555566
 10
-0.9094548411475571
 20
0.1235110684548117
 10
-0.9033272286546178
 20
0.1270790793988121
 10
-0.8979253799150583
 20
0.1321753555638456
 10
-0.893404682394582
 20
0.1386533851072591
 10
-0.8898952354497886
 20
0.1463267229493699
 10
-0.8874979426183848
 20
0.1549747114226228
 10
-0.8862817986232514
 20
0.1643485101354365
 10
-0.8862817986232514
 20
0.1741784428920434
 10
-0.8874979426183848
 20
0.1841817640599119
 10
-0.8898952354497886
 20
0.1940706826160743
 10
-0.893404682394582
 20
0.2035606438723647
 10
-0.8979253799150583
 20
0.2123787586466719
 10
-0.9033272286546178
 20
0.2202712374768274
 10
-0.9094548411475571
 20
0.2270111340491909
 10
-0.9161319473262707
 20
0.2324044494564772
 10
-0.9231664720549552
 20
0.2362960703868819
 10
-0.9303560109012742
 20
0.2385740423745646
 10
-0.9374937290358218
 20
0.2391728645573816
 10
-0.9435891340354736
 20
0.2382906932565021
  0
LWPOLYLINE
  5
3006
330
2F70
100
AcDbEntity
  8
0
  6
Continuous
 62
     7
370
    15
100
AcDbPolyline
 90
        9
 70
   128
 43
0.0
 10
-0.9658906126079429
 20
0.5112586830225223
 10
-0.9596828796197129
 20
0.5088167546756508
 10
-0.9537136911567536
 20
0.50479836873631
 10
-0.9482124820514918
 20
0.4993577678564534
 10
-0.9433906170898858
 20
0.492704154160192
 10
-0.939433401362784
 20
0.4850931613332672
 10
-0.9364929368728844
 20
0.4768173217325172
 10
-0.934682223635292
 20
0.4681946115810316
 10
-0.9340708039500533
 20
0.459556443560107
  0
LWPOLYLINE
  5
3007
330
2F70
100
AcDbEntity
  8
0
  6
Continuous
 62
     7
370
    15
100
AcDbPolyline
 90
        9
 70
   128
 43
0.0
 10
-0.9391619726508473
 20
0.4582387521385117
 10
-0.939773392336086
 20
0.4668769201594368
 10
-0.9415841055736748
 20
0.4754996303109232
 10
-0.9445245700635744
 20
0.4837754699116728
 10
-0.9484817857906797
 20
0.4913864627385976
 10
-0.9533036507522858
 20
0.4980400764348594
 10
-0.958804859857544
 20
0.5034806773147152
 10
-0.9647740483205033
 20
0.507499063254056
 10
-0.9709817813087369
 20
0.5099409916009275
  0
LINE
  5
3008
330
2F70
100
AcDbEntity
  8
0
  6
Continuous
 62
     7
370
    15
100
AcDbLine
 10
-0.9709817813087369
 20
0.509940991600927
 30
0.0
 11
-1.05583458780319
 21
0.5319025139520912
 31
0.0
  0
LINE
  5
3009
330
2F70
100
AcDbEntity
  8
0
  6
Continuous
 62
     7
370
    15
100
AcDbLine
 10
-0.9658906126079429
 20
0.5112586830225219
 30
0.0
 11
-1.050743419102399
 21
0.5332202053736857
 31
0.0
  0
LWPOLYLINE
  5
300A
330
2F70
100
AcDbEntity
  8
0
  6
Continuous
 62
     7
370
    15
100
AcDbPolyline
 90
       18
 70
   128
 43
0.0
 10
-1.022699573462922
 20
0.4798598742108489
 10
-1.022072149590524
 20
0.4842824794364136
 10
-1.02027460309478
 20
0.4877829550663205
 10
-1.017549709779068
 20
0.4898886330102568
 10
-1.014265491278468
 20
0.4903151180843693
 10
-1.010865485097198
 20
0.4890046892458777
 10
-1.007808884468431
 20
0.4861345387857821
 10
-1.005508487905483
 20
0.4820920764410866
 10
-1.004275020560019
 20
0.4774234584879178
 10
-1.004275020560019
 20
0.4727590395562387
 10
-1.005508487905483
 20
0.4687288432837145
 10
-1.007808884468431
 20
0.4658772218229697
 10
-1.010865485097198
 20
0.4645892162744758
 10
-1.014265491278468
 20
0.4650388281427352
 10
-1.017549709779068
 20
0.4671653498093132
 10
-1.02027460309478
 20
0.4706815363252077
 10
-1.022072149590524
 20
0.4751124904902256
 10
-1.022699573462922
 20
0.4798598742108489
  0
ARC
  5
300B
330
2F70
100
AcDbEntity
  8
0
  6
Continuous
 62
     7
370
    15
100
AcDbCircle
 10
-1.002874341336269
 20
0.4799239909054869
 30
0.0
 40
0.0147872943648735
100
AcDbArc
 50
175.1369839710674
 51
250.8931430028807
  0
LINE
  5
300C
330
2F70
100
AcDbEntity
  8
0
  6
Continuous
 62
     7
370
    15
100
AcDbLine
 10
-1.113294747024383
 20
0.2822137379588296
 30
0.0
 11
-1.11965870790037
 21
0.2805666236818367
 31
0.0
  0
ARC
  5
300D
330
2F70
100
AcDbEntity
  8
0
  6
Continuous
 62
     7
370
    15
100
AcDbCircle
 10
-1.006488425883011
 20
0.4820413820704897
 30
0.0
 40
0.0111534796862097
100
AcDbArc
 50
132.4089065633518
 51
184.4419006378524
  0
LINE
  5
300E
330
2F70
100
AcDbEntity
  8
0
  6
Continuous
 62
     7
370
    15
100
AcDbLine
 10
-1.062018754750276
 20
0.5333180246943963
 30
0.0
 11
-1.067109923451067
 21
0.5320003332728023
 31
0.0
  0
LINE
  5
300F
330
2F70
100
AcDbEntity
  8
0
  6
Continuous
 62
     7
370
    15
100
AcDbLine
 10
-1.050743419102399
 20
0.5332202053736857
 30
0.0
 11
-1.05583458780319
 21
0.5319025139520912
 31
0.0
  0
LWPOLYLINE
  5
3010
330
2F70
100
AcDbEntity
  8
0
  6
Continuous
 62
     7
370
    15
100
AcDbPolyline
 90
        3
 70
   128
 43
0.0
 10
-1.062018754750276
 20
0.5333180246943963
 10
-1.056951152090633
 20
0.5339916360753456
 10
-1.050743419102399
 20
0.5332202053736857
  0
LINE
  5
3011
330
2F70
100
AcDbEntity
  8
0
  6
Continuous
 62
     7
370
    15
100
AcDbLine
 10
-1.087654396461079
 20
0.4966714194740343
 30
0.0
 11
-1.087654396461079
 21
0.4821825078171589
 31
0.0
  0
LWPOLYLINE
  5
3012
330
2F70
100
AcDbEntity
  8
0
  6
Continuous
 62
     7
370
    15
100
AcDbPolyline
 90
        9
 70
   128
 43
0.0
 10
-1.05583458780319
 20
0.5319025139520912
 10
-1.062042320791423
 20
0.5326739446537508
 10
-1.068011509254382
 20
0.5317454380304505
 10
-1.073512743249512
 20
0.5291524789676317
 10
-1.078334583321247
 20
0.5249948397993505
 10
-1.082291799048352
 20
0.5194322525639335
 10
-1.085232263538252
 20
0.5126785093860505
 10
-1.087043001665712
 20
0.5049930998187522
 10
-1.087654396461079
 20
0.4966714194740347
  0
LINE
  5
3013
330
2F70
100
AcDbEntity
  8
0
  6
Continuous
 62
     7
370
    15
100
AcDbLine
 10
-1.108867585639758
 20
0.4586951298706037
 30
0.0
 11
-1.103776416938966
 21
0.4600128212921982
 31
0.0
  0
LWPOLYLINE
  5
3014
330
2F70
100
AcDbEntity
  8
0
  6
Continuous
 62
     7
370
    15
100
AcDbPolyline
 90
        3
 70
   128
 43
0.0
 10
-1.103776416938966
 20
0.4600128212921982
 10
-1.099637928280145
 20
0.4594984888241638
 10
-1.098867288089046
 20
0.4595288737928565
  0
LWPOLYLINE
  5
3015
330
2F70
100
AcDbEntity
  8
0
  6
Continuous
 62
     7
370
    15
100
AcDbPolyline
 90
        9
 70
   128
 43
0.0
 10
-1.087654396461079
 20
0.4821825078171594
 10
-1.088062017881195
 20
0.4766347273626535
 10
-1.089269151742964
 20
0.47151113720928
 10
-1.091229477996144
 20
0.4670086460520065
 10
-1.093867605220967
 20
0.4633002502670803
 10
-1.097082181862038
 20
0.4605284951162072
 10
-1.100749654598878
 20
0.4587998514463463
 10
-1.104729096980936
 20
0.4581807974025689
 10
-1.108867585639757
 20
0.4586951298706037
  0
LINE
  5
3016
330
2F70
100
AcDbEntity
  8
0
  6
Continuous
 62
     7
370
    15
100
AcDbLine
 10
-0.9709817813087369
 20
0.509940991600927
 30
0.0
 11
-0.9658906126079429
 21
0.5112586830225219
 31
0.0
  0
LINE
  5
3017
330
2F70
100
AcDbEntity
  8
0
  6
Continuous
 62
     7
370
    15
100
AcDbLine
 10
-0.9128576147713776
 20
0.4105993992230661
 30
0.0
 11
-0.917948783472168
 21
0.4092817078014713
 31
0.0
  0
LINE
  5
3018
330
2F70
100
AcDbEntity
  8
0
  6
Continuous
 62
     7
370
    15
100
AcDbLine
 10
-0.9391619726508473
 20
0.4437498404816349
 30
0.0
 11
-0.9391619726508473
 21
0.4582387521385112
 31
0.0
  0
LINE
  5
3019
330
2F70
100
AcDbEntity
  8
0
  6
Continuous
 62
     7
370
    15
100
AcDbLine
 10
-0.9391619726508473
 20
0.4437498404816349
 30
0.0
 11
-0.9340708039500569
 21
0.4450675319032298
 31
0.0
  0
LINE
  5
301A
330
2F70
100
AcDbEntity
  8
0
  6
Continuous
 62
     7
370
    15
100
AcDbLine
 10
-0.9340708039500569
 20
0.459556443560107
 30
0.0
 11
-0.9391619726508473
 21
0.4582387521385112
 31
0.0
  0
LINE
  5
301B
330
2F70
100
AcDbEntity
  8
0
  6
Continuous
 62
     7
370
    15
100
AcDbLine
 10
-0.9340708039500569
 20
0.4450675319032298
 30
0.0
 11
-0.9340708039500569
 21
0.459556443560107
 31
0.0
  0
ARC
  5
301C
330
2F70
100
AcDbEntity
  8
0
  6
Continuous
 62
     7
370
    15
100
AcDbCircle
 10
-0.9040656145375471
 20
0.4415878406035079
 30
0.0
 40
0.035162886631931
100
AcDbArc
 50
176.4749296024182
 51
246.7449713246805
  0
ARC
  5
301D
330
2F70
100
AcDbEntity
  8
0
  6
Continuous
 62
     7
370
    15
100
AcDbCircle
 10
-0.8989744458367567
 20
0.4429055320251019
 30
0.0
 40
0.0351628866319306
100
AcDbArc
 50
176.4749296024175
 51
246.7449713246807
  0
TEXT
  5
301E
330
2F70
100
AcDbEntity
  8
Dimensions
 48
0.5
100
AcDbText
 10
-0.8349110708104809
 20
0.4405483295016542
 30
0.0
 40
0.055
  1
4
100
AcDbText
  0
LINE
  5
301F
330
2F70
100
AcDbEntity
  8
Dimensions
 48
0.5
100
AcDbLine
 10
-0.8352647338041343
 20
0.5113785154967463
 30
0.0
 11
-0.7802647338041347
 21
0.5113785154967463
 31
0.0
  0
LINE
  5
3020
330
2F70
100
AcDbEntity
  8
0
  6
Continuous
 62
     7
370
    15
100
AcDbLine
 10
-0.6750575968806843
 20
0.1871603500124053
 30
0.0
 11
-0.6750575968806843
 21
0.3320491945795956
 31
0.0
  0
LINE
  5
3021
330
2F70
100
AcDbEntity
  8
0
  6
Continuous
 62
     7
370
    15
100
AcDbLine
 10
-0.7005134388290202
 20
0.3254607378742458
 30
0.0
 11
-0.7005134388290202
 21
0.1805718933070559
 31
0.0
  0
LINE
  5
3022
330
2F70
100
AcDbEntity
  8
0
  6
Continuous
 62
     7
370
    15
100
AcDbLine
 10
-0.6801487640258586
 20
0.188478041031376
 30
0.0
 11
-0.6801487640258586
 21
0.3307315303824074
 31
0.0
  0
LINE
  5
3023
330
2F70
100
AcDbEntity
  8
0
  6
Continuous
 62
     7
370
    15
100
AcDbLine
 10
-0.7005134388290202
 20
0.1805718933070559
 30
0.0
 11
-0.6750575968806843
 21
0.1871603500124053
 31
0.0
  0
LINE
  5
3024
330
2F70
100
AcDbEntity
  8
0
  6
Continuous
 62
     7
370
    15
100
AcDbLine
 10
-0.6801487640258586
 20
0.188478041031376
 30
0.0
 11
-0.6750575968806843
 21
0.1871603500124053
 31
0.0
  0
LINE
  5
3025
330
2F70
100
AcDbEntity
  8
0
  6
Continuous
 62
     7
370
    15
100
AcDbLine
 10
-0.7005134388290202
 20
0.1832072753449983
 30
0.0
 11
-0.6801487640258586
 21
0.188478041031376
 31
0.0
  0
LINE
  5
3026
330
2F70
100
AcDbEntity
  8
Dimensions
390
F
100
AcDbLine
 10
-0.7328146700470626
 20
0.4864603480626771
 30
0.0
 11
-0.594916348355822
 21
0.4476945840353195
 31
0.0
  0
ARC
  5
3027
330
2F70
100
AcDbEntity
  8
0
  6
Continuous
 62
     7
370
    15
100
AcDbCircle
 10
-0.7417547692960192
 20
0.3584352733731118
 30
0.0
 40
0.0168780849987217
100
AcDbArc
 50
356.4746191862476
 51
66.74522918261954
  0
LINE
  5
3028
330
2F70
100
AcDbEntity
  8
0
  6
Continuous
 62
     7
370
    15
100
AcDbLine
 10
-0.7299997905636815
 20
0.3587151193662543
 30
0.0
 11
-0.7249086234185054
 21
0.3573974283472827
 31
0.0
  0
ARC
  5
3029
330
2F70
100
AcDbEntity
  8
0
  6
Continuous
 62
     7
370
    15
100
AcDbCircle
 10
-0.7384228668706463
 20
0.3592340398062284
 30
0.0
 40
0.0084390457337302
100
AcDbArc
 50
356.474634639738
 51
66.74521372912845
  0
LINE
  5
302A
330
2F70
100
AcDbEntity
  8
0
  6
Continuous
 62
     7
370
    15
100
AcDbLine
 10
-0.7350909577088558
 20
0.3669874825404955
 30
0.0
 11
-0.7350909577088558
 21
0.3739421546957642
 31
0.0
  0
LINE
  5
302B
330
2F70
100
AcDbEntity
  8
0
  6
Continuous
 62
     7
370
    15
100
AcDbLine
 10
-0.6750575968806843
 20
0.3320491945795956
 30
0.0
 11
-0.7005134388290202
 21
0.3254607378742458
 31
0.0
  0
LINE
  5
302C
330
2F70
100
AcDbEntity
  8
0
  6
Continuous
 62
     7
370
    15
100
AcDbLine
 10
-0.7461218238754093
 20
0.3674450010389574
 30
0.0
 11
-0.7512129925761997
 21
0.3661273096173625
 31
0.0
  0
ARC
  5
302D
330
2F70
100
AcDbEntity
  8
0
  6
Continuous
 62
     7
370
    15
100
AcDbCircle
 10
-0.7376375653777849
 20
0.4272315439104313
 30
0.0
 40
0.0625940865590486
100
AcDbArc
 50
257.4741334642975
 51
275.0780962898086
  0
ARC
  5
302E
330
2F70
100
AcDbEntity
  8
0
  6
Continuous
 62
     7
370
    15
100
AcDbCircle
 10
-0.737640102249813
 20
0.4056193512000812
 30
0.0
 40
0.039105250439784
100
AcDbArc
 50
257.4732909371892
 51
275.0063932392376
  0
LWPOLYLINE
  5
302F
330
2F70
100
AcDbEntity
  8
Dimensions
380
     2
100
AcDbPolyline
 90
        2
 70
   128
 10
-0.7363201192410483
 20
0.4872444621919883
 40
0.0
 41
0.04
 10
-0.6598238441800853
 20
0.4633179864684483
 40
0.04
 41
0.04
  0
TEXT
  5
3030
330
2F70
100
AcDbEntity
  8
Dimensions
 48
0.5
100
AcDbText
 10
0.9213451641177989
 20
-0.3196086622873278
 30
0.0
 40
0.055
  1
16
100
AcDbText
  0
LINE
  5
3031
330
2F70
100
AcDbEntity
  8
Dimensions
 48
0.5
100
AcDbLine
 10
0.9403918119343721
 20
-0.2483475861028719
 30
0.0
 11
1.016085508204799
 21
-0.2483475861028719
 31
0.0
  0
TEXT
  5
3032
330
2F70
100
AcDbEntity
  8
Dimensions
 48
0.5
100
AcDbText
 10
0.9503838818730621
 20
-0.2317019428064366
 30
0.0
 40
0.055
  1
9
100
AcDbText
  0
TEXT
  5
3033
330
2F70
100
AcDbEntity
  8
Dimensions
 48
0.5
100
AcDbText
 10
0.7955986909113407
 20
-0.2866827875490667
 30
0.0
 40
0.07
  1
25
100
AcDbText
  0
LWPOLYLINE
  5
3034
330
2F70
100
AcDbEntity
  8
0
  6
Continuous
 62
     7
370
    15
100
AcDbPolyline
 90
        9
 70
   128
 43
0.0
 10
1.251101315884884
 20
0.0061581110602544
 10
1.257309048873111
 20
0.0085999900005906
 10
1.26327823733607
 20
0.0126184333152621
 10
1.268779496221078
 20
0.0180590141413744
 10
1.273601361182677
 20
0.0247126416502153
 10
1.277558452460429
 20
0.0323236001422647
 10
1.280499041399682
 20
0.0405994932030005
 10
1.282309630187917
 20
0.0492221541445255
 10
1.282921124542774
 20
0.0578603457413927
  0
SPLINE
  5
3035
330
2F70
100
AcDbEntity
  8
0
  6
Continuous
 62
     7
370
    15
100
AcDbSpline
210
0.0
220
0.0
230
1.0
 70
     8
 71
     3
 72
    10
 73
     6
 74
     0
 42
0.0000000001
 43
0.0000000001
 40
0.0
 40
0.0
 40
0.0
 40
0.0
 40
0.4565115077231665
 40
0.9131829338712694
 40
1.0
 40
1.0
 40
1.0
 40
1.0
 10
1.269344676748151
 20
0.0135945135235041
 30
0.0
 10
1.270755983431637
 20
0.0148504676018053
 30
0.0
 10
1.273579091186896
 20
0.017362815725845
 30
0.0
 10
1.275204636790533
 20
0.0204117135004873
 30
0.0
 10
1.274837862935907
 20
0.0220540908666549
 30
0.0
 10
1.274779274335696
 20
0.0223164448749427
 30
0.0
  0
SPLINE
  5
3036
330
2F70
100
AcDbEntity
  8
0
  6
Continuous
 62
     7
370
    15
100
AcDbSpline
210
0.0
220
0.0
230
1.0
 70
     8
 71
     3
 72
    10
 73
     6
 74
     0
 42
0.0000000001
 43
0.0000000001
 40
0.0
 40
0.0
 40
0.0
 40
0.0
 40
0.0692913330638323
 40
0.5346476653098437
 40
1.0
 40
1.0
 40
1.0
 40
1.0
 10
1.272089270396897
 20
0.0162943161228242
 30
0.0
 10
1.272116197355991
 20
0.015910617979849
 30
0.0
 10
1.272323964116697
 20
0.0129500267016227
 30
0.0
 10
1.271189479000565
 20
0.0086388269370921
 30
0.0
 10
1.269959609071452
 20
0.0065334302485089
 30
0.0
 10
1.269344676748151
 20
0.0054807364257399
 30
0.0
  0
LINE
  5
3037
330
2F70
100
AcDbEntity
  8
0
  6
Continuous
 62
     7
370
    15
100
AcDbLine
 10
1.269265676297063
 20
0.0138339692933371
 30
0.0
 11
1.269344676748151
 21
0.0124354022059636
 31
0.0
  0
LINE
  5
3038
330
2F70
100
AcDbEntity
  8
0
  6
Continuous
 62
     8
370
    15
100
AcDbLine
 10
1.269344676748151
 20
0.0135945135235041
 30
0.0
 11
1.269344676748151
 21
0.0187333010691191
 31
0.0
  0
LINE
  5
3039
330
2F70
100
AcDbEntity
  8
0
  6
Continuous
 62
     7
370
    15
100
AcDbLine
 10
1.346560617409192
 20
-0.0074765942934176
 30
0.0
 11
1.271615286357775
 21
0.0119206847242022
 31
0.0
  0
LINE
  5
303A
330
2F70
100
AcDbEntity
  8
0
  6
Continuous
 62
     7
370
    15
100
AcDbLine
 10
1.269344676748151
 20
0.0054807364257412
 30
0.0
 11
1.219281389000105
 21
-0.0074765959039018
 31
0.0
  0
LINE
  5
303B
330
2F70
100
AcDbEntity
  8
0
  6
Continuous
 62
     7
370
    15
100
AcDbLine
 10
1.219281389000105
 20
-0.0074765959039014
 30
0.0
 11
1.219281389000105
 21
-0.0020774922302684
 31
0.0
  0
LINE
  5
303C
330
2F70
100
AcDbEntity
  8
0
  6
Continuous
 62
     7
370
    15
100
AcDbLine
 10
1.219281389000105
 20
-0.0074765959039014
 30
0.0
 11
1.208851120480588
 21
-0.0047770437655168
 31
0.0
  0
LINE
  5
303D
330
2F70
100
AcDbEntity
  8
0
  6
Continuous
 62
     7
370
    15
100
AcDbLine
 10
1.269344676748151
 20
0.0135945135235041
 30
0.0
 11
1.262170221163763
 21
0.0117376277800214
 31
0.0
  0
LINE
  5
303E
330
2F70
100
AcDbEntity
  8
0
  6
Continuous
 62
     7
370
    15
100
AcDbLine
 10
1.269344676748151
 20
0.0124354022059636
 30
0.0
 11
1.259537669270081
 21
0.009897161895176
 31
0.0
  0
LINE
  5
303F
330
2F70
100
AcDbEntity
  8
0
  6
Continuous
 62
     7
370
    15
100
AcDbLine
 10
1.269344676748151
 20
0.0124354022059636
 30
0.0
 11
1.269344676748151
 21
0.0054807364257412
 31
0.0
  0
LINE
  5
3040
330
2F70
100
AcDbEntity
  8
0
  6
Continuous
 62
     8
370
    15
100
AcDbLine
 10
1.267105447043601
 20
0.0130149574998608
 30
0.0
 11
1.269344676748151
 21
0.0124354022059636
 31
0.0
  0
LINE
  5
3041
330
2F70
100
AcDbEntity
  8
0
  6
Continuous
 62
     7
370
    15
100
AcDbLine
 10
1.346560617409192
 20
-0.0161699265187076
 30
0.0
 11
1.346560617409192
 21
-0.0074765942934176
 31
0.0
  0
LWPOLYLINE
  5
3042
330
2F70
100
AcDbEntity
  8
0
  6
Continuous
 62
     7
370
    15
100
AcDbPolyline
 90
       17
 70
   128
 43
0.0
 10
1.259077424439848
 20
0.2394651159903036
 10
1.258470310702321
 20
0.243477580467137
 10
1.256741360691517
 20
0.246564891685713
 10
1.254153610565936
 20
0.248257007306369
 10
1.251101315884884
 20
0.2482963991003881
 10
1.248049021203826
 20
0.246677023316924
 10
1.245461271078248
 20
0.2436453896633361
 10
1.243732321067444
 20
0.2396631080631075
 10
1.243125207329917
 20
0.2353363783906426
 10
1.243732321067444
 20
0.2313239309139075
 10
1.245461271078248
 20
0.2282366196953314
 10
1.248049021203826
 20
0.2265445040746754
 10
1.251101315884884
 20
0.2265051122806563
 10
1.254153610565936
 20
0.22812448806412
 10
1.256741360691517
 20
0.2311561217177083
 10
1.258470310702321
 20
0.2351384033179373
 10
1.259077424439848
 20
0.2394651159903036
  0
ARC
  5
3043
330
2F70
100
AcDbEntity
  8
0
  6
Continuous
 62
     7
370
    15
100
AcDbCircle
 10
1.244373451809522
 20
0.2415277018448561
 30
0.0
 40
0.0096416231834386
100
AcDbArc
 50
355.5690134798678
 51
44.82137107826846
  0
ARC
  5
3044
330
2F70
100
AcDbEntity
  8
0
  6
Continuous
 62
     7
370
    15
100
AcDbCircle
 10
1.241303995447303
 20
0.2396680914782734
 30
0.0
 40
0.012731156910522
100
AcDbArc
 50
291.1572657238138
 51
5.023140130331666
  0
ARC
  5
3045
330
2F70
100
AcDbEntity
  8
0
  6
Continuous
 62
     7
370
    15
100
AcDbCircle
 10
1.24133050515967
 20
0.2396983714016541
 30
0.0
 40
0.0096914828474262
100
AcDbArc
 50
286.5025508509587
 51
5.70645547059532
  0
ARC
  5
3046
330
2F70
100
AcDbEntity
  8
0
  6
Continuous
 62
     7
370
    15
100
AcDbCircle
 10
1.243709726594897
 20
0.2413028250599547
 30
0.0
 40
0.0072924437307413
100
AcDbArc
 50
354.9587256132034
 51
50.39969854174972
  0
LINE
  5
3047
330
2F70
100
AcDbEntity
  8
0
  6
Continuous
 62
     7
370
    15
100
AcDbLine
 10
1.245882793491411
 20
0.2419797045983656
 30
0.0
 11
1.245694028708474
 21
0.2440110146880743
 31
0.0
  0
ARC
  5
3048
330
2F70
100
AcDbEntity
  8
0
  6
Continuous
 62
     7
370
    15
100
AcDbCircle
 10
1.233673648900616
 20
0.2419223510364361
 30
0.0
 40
0.012209279301826
100
AcDbArc
 50
321.0296379239683
 51
0.2691501310773452
  0
LINE
  5
3049
330
2F70
100
AcDbEntity
  8
0
  6
Continuous
 62
     7
370
    15
100
AcDbLine
 10
1.274968151123054
 20
0.022321878678905
 30
0.0
 11
1.274968151123054
 21
0.0270546465052206
 31
0.0
  0
LINE
  5
304A
330
2F70
100
AcDbEntity
  8
Dimensions
390
F
100
AcDbLine
 10
1.466767790330443
 20
0.3956407540890172
 30
0.0
 11
1.466767790330443
 21
0.0626820313219838
 31
0.0
  0
LWPOLYLINE
  5
304B
330
2F70
100
AcDbEntity
  8
Dimensions
380
     2
100
AcDbPolyline
 90
        2
 70
   128
 10
1.465080924554946
 20
0.0580452109955427
 40
0.0
 41
0.04
 10
1.465080924554946
 20
0.138196045917903
 40
0.04
 41
0.04
  0
LINE
  5
304C
330
2F70
100
AcDbEntity
  8
Dimensions
 48
0.5
100
AcDbLine
 10
1.461757386592385
 20
0.5178547638891385
 30
0.0
 11
1.516757386592384
 21
0.5178547638891385
 31
0.0
  0
TEXT
  5
304D
330
2F70
100
AcDbEntity
  8
Dimensions
 48
0.5
100
AcDbText
 10
1.463849745349801
 20
0.4470245778940463
 30
0.0
 40
0.055
  1
8
100
AcDbText
  0
LWPOLYLINE
  5
304E
330
2F70
100
AcDbEntity
  8
Dimensions
380
     2
100
AcDbPolyline
 90
        2
 70
   128
 10
1.808114503161128
 20
-0.009275704442679
 40
0.0
 41
0.04
 10
1.730676297567431
 20
-0.0299625595322617
 40
0.04
 41
0.04
  0
LINE
  5
304F
330
2F70
100
AcDbEntity
  8
Dimensions
380
     2
100
AcDbLine
 10
1.098129012217889
 20
1.037007729333335
 30
0.0
 11
1.658658677516335
 21
1.232078677361268
 31
0.0
  0
TEXT
  5
3050
330
2F70
100
AcDbEntity
  8
Dimensions
 48
0.5
100
AcDbText
 10
1.636801847062383
 20
0.7720931588161744
 30
0.0
 40
0.055
  1
3
100
AcDbText
  0
LINE
  5
3051
330
2F70
100
AcDbEntity
  8
Dimensions
 48
0.5
100
AcDbLine
 10
1.63524310492885
 20
0.7575457513186361
 30
0.0
 11
1.69024310492885
 21
0.7575457513186361
 31
0.0
  0
TEXT
  5
3052
330
2F70
100
AcDbEntity
  8
Dimensions
 48
0.5
100
AcDbText
 10
1.637335463686266
 20
0.686715565323544
 30
0.0
 40
0.055
  1
8
100
AcDbText
  0
LWPOLYLINE
  5
3053
330
2F70
100
AcDbEntity
  8
Dimensions
380
     2
100
AcDbPolyline
 90
        2
 70
   128
 10
1.638566642891412
 20
1.222005675852221
 40
0.0
 41
0.04
 10
1.638566642891412
 20
1.141854840929861
 40
0.04
 41
0.04
  0
LINE
  5
3054
330
2F70
100
AcDbEntity
  8
Dimensions
390
F
100
AcDbLine
 10
0.0121720224331909
 20
1.035676525530827
 30
0.0
 11
0.7142015386454652
 21
1.207138836916534
 31
0.0
  0
LWPOLYLINE
  5
3055
330
2F70
100
AcDbEntity
  8
0
  6
Continuous
 62
     7
370
    15
100
AcDbPolyline
 90
       17
 70
   128
 43
0.0
 10
-1.073738531715811
 20
0.5492170755599402
 10
-1.071293338327347
 20
0.5501642291413554
 10
-1.070434687551795
 20
0.5512814604647019
 10
-1.071293325882411
 20
0.5523986950090359
 10
-1.073738519270875
 20
0.5533458421484774
 10
-1.077398014804007
 20
0.5539787047663705
 10
-1.081714677605582
 20
0.5542009367191887
 10
-1.086031377741967
 20
0.5539787144293298
 10
-1.089690848385227
 20
0.5533458389274913
 10
-1.092136079108499
 20
0.5523987014510082
 10
-1.092994680104304
 20
0.5512814572437157
 10
-1.092136041773692
 20
0.5501642226993831
 10
-1.089690848385227
 20
0.5492170755599402
 10
-1.086031352852096
 20
0.5485842129420471
 10
-1.081714690050517
 20
0.5483619809892289
 10
-1.077398039693878
 20
0.5485842161630337
 10
-1.073738531715811
 20
0.5492170755599402
  0
LWPOLYLINE
  5
3056
330
2F70
100
AcDbEntity
  8
Dimensions
380
     2
100
AcDbPolyline
 90
        2
 70
   128
 10
-1.107887491043042
 20
0.6355685700368383
 40
0.0
 41
0.04
 10
-1.031391215982079
 20
0.6116420943132983
 40
0.04
 41
0.04
  0
LINE
  5
3057
330
2F70
100
AcDbEntity
  8
Dimensions
390
F
100
AcDbLine
 10
-1.104382041849056
 20
0.6347844559075271
 30
0.0
 11
-0.9701676603507216
 21
0.5970543154791908
 31
0.0
  0
LINE
  5
3058
330
2F70
100
AcDbEntity
  8
Dimensions
 48
0.5
100
AcDbLine
 10
-0.0831383469621123
 20
0.9888854923766547
 30
0.0
 11
-0.007444650691685
 21
0.9888854923766547
 31
0.0
  0
TEXT
  5
3059
330
2F70
100
AcDbEntity
  8
Dimensions
 48
0.5
100
AcDbText
 10
-0.1021849947786855
 20
0.9176244161921989
 30
0.0
 40
0.055
  1
16
100
AcDbText
  0
TEXT
  5
305A
330
2F70
100
AcDbEntity
  8
Dimensions
 48
0.5
100
AcDbText
 10
-0.1009799156388063
 20
1.003002009684829
 30
0.0
 40
0.055
  1
13
100
AcDbText
  0
TEXT
  5
305B
330
2F70
100
AcDbEntity
  8
Dimensions
 48
0.5
100
AcDbText
 10
-0.2279314679851438
 20
0.9505502909304599
 30
0.0
 40
0.07
  1
23
100
AcDbText
  0
LINE
  5
305C
330
2F70
100
AcDbEntity
  8
0
  6
Continuous
 62
     7
370
    15
100
AcDbLine
 10
0.7704101285144916
 20
1.023618957350178
 30
0.0
 11
1.272738790252422
 21
0.8936067327915395
 31
0.0
  0
LINE
  5
305D
330
2F70
100
AcDbEntity
  8
0
  6
Continuous
 62
     7
370
    15
100
AcDbLine
 10
0.9596318894861148
 20
1.053543623040253
 30
0.0
 11
1.044484695980568
 21
1.031582100689089
 31
0.0
  0
LINE
  5
305E
330
2F70
100
AcDbEntity
  8
0
  6
Continuous
 62
     7
370
    15
100
AcDbLine
 10
0.964722963294271
 20
1.054861289901827
 30
0.0
 11
0.9596318894861148
 21
1.053543623040253
 31
0.0
  0
LWPOLYLINE
  5
305F
330
2F70
100
AcDbEntity
  8
0
  6
Continuous
 62
     7
370
    15
100
AcDbPolyline
 90
        3
 70
   128
 43
0.0
 10
0.9534476276463941
 20
1.054959109222537
 10
0.9585152303060411
 20
1.055632720603487
 10
0.964722963294271
 20
1.054861289901827
  0
TEXT
  5
3060
330
2F70
100
AcDbEntity
  8
Dimensions
 48
0.5
100
AcDbText
 10
0.9239128049625833
 20
1.239386721065629
 30
0.0
 40
0.07
  1
6
100
AcDbText
  0
LWPOLYLINE
  5
3061
330
2F70
100
AcDbEntity
  8
0
  6
Continuous
 62
     7
370
    15
100
AcDbPolyline
 90
       17
 70
   128
 43
0.0
 10
0.5955284676972568
 20
0.9812551663691833
 10
0.5979735988610458
 20
0.9822023038456668
 10
0.5988323491960799
 20
0.9833195609369038
 10
0.5979736486407888
 20
0.9844367793763053
 10
0.5955284179175138
 20
0.9853839168527889
 10
0.5918689597191893
 20
0.9860167891336422
 10
0.5875523591422934
 20
0.9862390371913907
 10
0.5832355594464254
 20
0.9860167891336422
 10
0.5795761510278439
 20
0.9853839297367343
 10
0.5771309700843155
 20
0.9844368051441971
 10
0.5762722695290244
 20
0.9833195351690129
 10
0.5771309700843155
 20
0.9822023167296114
 10
0.5795762008075869
 20
0.9812551792531287
 10
0.5832356590059114
 20
0.9806223069722772
 10
0.5875522595828074
 20
0.980400058914526
 10
0.5918690094989323
 20
0.9806223198562218
 10
0.5955284676972568
 20
0.9812551663691833
  0
ARC
  5
3062
330
2F70
100
AcDbEntity
  8
0
  6
Continuous
 62
     7
370
    15
100
AcDbCircle
 10
0.7385903198566055
 20
0.8810368155892884
 30
0.0
 40
0.1460895868025753
100
AcDbArc
 50
77.41954938743403
 51
102.580450612567
  0
LINE
  5
3063
330
2F70
100
AcDbEntity
  8
0
  6
Continuous
 62
     7
370
    15
100
AcDbLine
 10
0.9534476276463941
 20
1.054959109222537
 30
0.0
 11
0.9483565538382379
 21
1.053641442360963
 31
0.0
  0
ARC
  5
3064
330
2F70
100
AcDbEntity
  8
0
  6
Continuous
 62
     7
370
    15
100
AcDbCircle
 10
0.9011205211720643
 20
1.00217101825472
 30
0.0
 40
0.0267426707562727
100
AcDbArc
 50
318.8576599696016
 51
3.542925738808562
  0
LINE
  5
3065
330
2F70
100
AcDbEntity
  8
0
  6
Continuous
 62
     7
370
    15
100
AcDbLine
 10
0.9278120808282253
 20
1.003823616905322
 30
0.0
 11
0.9278120808282253
 21
1.018312528562197
 31
0.0
  0
LWPOLYLINE
  5
3066
330
2F70
100
AcDbEntity
  8
0
  6
Continuous
 62
     7
370
    15
100
AcDbPolyline
 90
        9
 70
   128
 43
0.0
 10
0.9596318894861148
 20
1.053543623040253
 10
0.9534241564978849
 20
1.054315053741913
 10
0.947454968034922
 20
1.053386547118613
 10
0.9419537340397923
 20
1.050793588055794
 10
0.9371318939680577
 20
1.046635948887512
 10
0.9331746782409524
 20
1.041073361652095
 10
0.9302342137510528
 20
1.034319618474213
 10
0.9284234756235925
 20
1.026634208906914
 10
0.9278120808282253
 20
1.018312528562197
  0
LINE
  5
3067
330
2F70
100
AcDbEntity
  8
Dimensions
380
     2
100
AcDbLine
 10
0.7145548234176573
 20
1.075594246568208
 30
0.0
 11
0.7145548234176573
 21
1.360967018046288
 31
0.0
  0
LINE
  5
3068
330
2F70
100
AcDbEntity
  8
Dimensions
380
     2
100
AcDbLine
 10
0.7160822438449302
 20
1.333412613788532
 30
0.0
 11
0.9111944444576209
 21
1.290967758364521
 31
0.0
  0
LWPOLYLINE
  5
3069
330
2F70
100
AcDbEntity
  8
Dimensions
380
     2
100
AcDbPolyline
 90
        2
 70
   128
 10
0.7192008480646948
 20
1.333246150550693
 40
0.0
 41
0.04
 10
0.7970829608613528
 20
1.31431118698906
 40
0.04
 41
0.04
  0
LWPOLYLINE
  5
306A
330
2F70
100
AcDbEntity
  8
Dimensions
380
     2
100
AcDbPolyline
 90
        2
 70
   128
 10
0.7146153570505476
 20
1.207123419869589
 40
0.0
 41
0.04
 10
0.6373343860150058
 20
1.185856704681922
 40
0.04
 41
0.04
  0
LINE
  5
306B
330
2F70
100
AcDbEntity
  8
Dimensions
380
     2
100
AcDbLine
 10
1.284020983917237
 20
0.9268623790645875
 30
0.0
 11
1.284020983917237
 21
1.238077273911549
 31
0.0
  0
LINE
  5
306C
330
2F70
100
AcDbEntity
  8
Dimensions
390
F
100
AcDbLine
 10
1.638566642891412
 20
1.215787266437251
 30
0.0
 11
1.638566642891412
 21
0.857828143206607
 31
0.0
  0
LWPOLYLINE
  5
306D
330
2F70
100
AcDbEntity
  8
0
  6
Continuous
 62
     7
370
    15
100
AcDbPolyline
 90
        9
 70
   128
 43
0.0
 10
1.049575769788727
 20
1.032899767550663
 10
1.055783502776957
 20
1.030457839203791
 10
1.061752691239917
 20
1.026439453264451
 10
1.067253900345178
 20
1.020998852384595
 10
1.072075765306784
 20
1.014345238688333
 10
1.076032981033886
 20
1.006734245861409
 10
1.078973445523786
 20
0.9984584062606591
 10
1.080784158761378
 20
0.9898356961091732
 10
1.081395578446617
 20
0.9811975280882467
  0
LWPOLYLINE
  5
306E
330
2F70
100
AcDbEntity
  8
0
  6
Continuous
 62
     7
370
    15
100
AcDbPolyline
 90
        9
 70
   128
 43
0.0
 10
1.076304504638457
 20
0.9798798612266743
 10
1.075693084953218
 20
0.988518029247599
 10
1.07388237171563
 20
0.9971407393990858
 10
1.07094190722573
 20
1.005416578999835
 10
1.066984691498625
 20
1.013027571826759
 10
1.062162826537019
 20
1.019681185523021
 10
1.056661617431757
 20
1.025121786402877
 10
1.050692428968801
 20
1.029140172342218
 10
1.044484695980568
 20
1.031582100689089
  0
LINE
  5
306F
330
2F70
100
AcDbEntity
  8
0
  6
Continuous
 62
     7
370
    15
100
AcDbLine
 10
0.964722963294271
 20
1.054861289901827
 30
0.0
 11
1.049575769788727
 21
1.032899767550663
 31
0.0
  0
LWPOLYLINE
  5
3070
330
2F70
100
AcDbEntity
  8
0
  6
Continuous
 62
     7
370
    15
100
AcDbPolyline
 90
       18
 70
   128
 43
0.0
 10
1.0113496816403
 20
0.9966914064898606
 10
1.010722257767902
 20
1.001438790210483
 10
1.008924711272157
 20
1.005869744375501
 10
1.006199817956446
 20
1.009385930891395
 10
1.002915599455846
 20
1.011512452557974
 10
0.9995155932745767
 20
1.01196199642584
 10
0.9964589677559381
 20
1.010674065319712
 10
0.9941585960828618
 20
1.007822369416602
 10
0.9929251038475257
 20
1.003792247586442
 10
0.9929251038475257
 20
0.999127828654764
 10
0.9941585960828618
 20
0.9944591362592305
 10
0.9964589677559381
 20
0.9904167483568997
 10
0.9995155932745767
 20
0.9875465234544389
 10
1.002915599455846
 20
0.9862361626163398
 10
1.006199817956446
 20
0.9866626476904514
 10
1.008924711272157
 20
0.9887683256343873
 10
1.010722257767902
 20
0.9922688012642959
 10
1.0113496816403
 20
0.9966914064898606
  0
ARC
  5
3071
330
2F70
100
AcDbEntity
  8
0
  6
Continuous
 62
     7
370
    15
100
AcDbCircle
 10
1.008977956513664
 20
1.003682466598629
 30
0.0
 40
0.011153479686214
100
AcDbArc
 50
132.4089065633595
 51
184.4419006378433
  0
ARC
  5
3072
330
2F70
100
AcDbEntity
  8
0
  6
Continuous
 62
     7
370
    15
100
AcDbCircle
 10
1.012592041060404
 20
1.001565075433628
 30
0.0
 40
0.0147872943648737
100
AcDbArc
 50
175.1369839710675
 51
250.8931430028787
  0
LINE
  5
3073
330
2F70
100
AcDbEntity
  8
0
  6
Continuous
 62
     7
370
    15
100
AcDbLine
 10
1.044484695980568
 20
1.031582100689089
 30
0.0
 11
1.049575769788727
 21
1.032899767550663
 31
0.0
  0
LINE
  5
3074
330
2F70
100
AcDbEntity
  8
0
  6
Continuous
 62
     7
370
    15
100
AcDbLine
 10
1.081395578446617
 20
0.9811975280882476
 30
0.0
 11
1.076304504638457
 21
0.9798798612266743
 31
0.0
  0
ARC
  5
3075
330
2F70
100
AcDbEntity
  8
0
  6
Continuous
 62
     7
370
    15
100
AcDbCircle
 10
1.118829722056119
 20
0.9654309034655321
 30
0.0
 40
0.0425252361866839
100
AcDbArc
 50
180.0538313280013
 51
212.2293314659476
  0
LINE
  5
3076
330
2F70
100
AcDbEntity
  8
0
  6
Continuous
 62
     7
370
    15
100
AcDbLine
 10
1.076304504638457
 20
0.965390949569798
 30
0.0
 11
1.081395578446617
 21
0.9667086164313722
 31
0.0
  0
LINE
  5
3077
330
2F70
100
AcDbEntity
  8
0
  6
Continuous
 62
     7
370
    15
100
AcDbLine
 10
1.076304504638457
 20
0.9798798612266743
 30
0.0
 11
1.076304504638457
 21
0.965390949569798
 31
0.0
  0
LINE
  5
3078
330
2F70
100
AcDbEntity
  8
0
  6
Continuous
 62
     7
370
    15
100
AcDbLine
 10
1.081395578446617
 20
0.9811975280882476
 30
0.0
 11
1.081395578446617
 21
0.9667086164313722
 31
0.0
  0
ARC
  5
3079
330
2F70
100
AcDbEntity
  8
0
  6
Continuous
 62
     7
370
    15
100
AcDbCircle
 10
1.123143012224193
 20
0.9665743805121849
 30
0.0
 40
0.0417476495900714
100
AcDbArc
 50
179.8157701102444
 51
218.0710317898128
  0
ARC
  5
307A
330
2F70
100
AcDbEntity
  8
0
  6
Continuous
 62
     7
370
    15
100
AcDbCircle
 10
1.266074978665258
 20
0.8780998514688867
 30
0.0
 40
0.0168780849987223
100
AcDbArc
 50
356.4746191862499
 51
66.74522918261843
  0
LINE
  5
307B
330
2F70
100
AcDbEntity
  8
Dimensions
390
F
100
AcDbLine
 10
1.465080924554946
 20
0.944959755077571
 30
0.0
 11
1.465080924554946
 21
0.6540638832876056
 31
0.0
  0
TEXT
  5
307C
330
2F70
100
AcDbEntity
  8
Dimensions
 48
0.5
100
AcDbText
 10
1.561908805231176
 20
0.7206703143773244
 30
0.0
 40
0.07
  1
8
100
AcDbText
  0
LINE
  5
307D
330
2F70
100
AcDbEntity
  8
Dimensions
380
     2
100
AcDbLine
 10
1.320135470140051
 20
0.9032255558094988
 30
0.0
 11
1.56735437782132
 21
0.9918800510646939
 31
0.0
  0
LWPOLYLINE
  5
307E
330
2F70
100
AcDbEntity
  8
Dimensions
380
     2
100
AcDbPolyline
 90
        2
 70
   128
 10
1.465080924554946
 20
0.951178164492541
 40
0.0
 41
0.04
 10
1.465080924554946
 20
0.8710273295701806
 40
0.04
 41
0.04
  0
TEXT
  5
307F
330
2F70
100
AcDbEntity
  8
Dimensions
 48
0.5
100
AcDbText
 10
0.99452535795022
 20
1.292269330009363
 30
0.0
 40
0.055
  1
1
100
AcDbText
  0
LINE
  5
3080
330
2F70
100
AcDbEntity
  8
Dimensions
390
F
100
AcDbLine
 10
1.071259064226367
 20
1.25614718013697
 30
0.0
 11
1.286214922416618
 21
1.209385520462286
 31
0.0
  0
LINE
  5
3081
330
2F70
100
AcDbEntity
  8
Dimensions
 48
0.5
100
AcDbLine
 10
0.9929666158166874
 20
1.277721922511824
 30
0.0
 11
1.047966615816687
 21
1.277721922511824
 31
0.0
  0
TEXT
  5
3082
330
2F70
100
AcDbEntity
  8
Dimensions
 48
0.5
100
AcDbText
 10
0.9950589745741034
 20
1.206891736516732
 30
0.0
 40
0.055
  1
2
100
AcDbText
  0
LWPOLYLINE
  5
3083
330
2F70
100
AcDbEntity
  8
Dimensions
380
     2
100
AcDbPolyline
 90
        2
 70
   128
 10
1.284461109058138
 20
1.209264915820483
 40
0.0
 41
0.04
 10
1.206065052775031
 20
1.225944684943783
 40
0.04
 41
0.04
  0
ENDBLK
  5
3085
330
2F70
100
AcDbEntity
  8
0
380
     2
100
AcDbBlockEnd
  0
ENDSEC
  0
SECTION
  2
ENTITIES
  0
LINE
  5
8B6
330
1E
100
AcDbEntity
  8
0
100
AcDbLine
 10
0.4248902672093145
 20
6.412583847293512
 30
0.0
 11
1.968802672129968
 21
6.412583847293512
 31
0.0
  0
LINE
  5
8B7
330
1E
100
AcDbEntity
  8
0
100
AcDbLine
 10
0.4248902672093145
 20
6.537583847293512
 30
0.0
 11
1.968802672129968
 21
6.537583847293512
 31
0.0
  0
LINE
  5
8B8
330
1E
100
AcDbEntity
  8
0
100
AcDbLine
 10
0.4248902672093145
 20
6.662583847293512
 30
0.0
 11
1.968802672129968
 21
6.662583847293512
 31
0.0
  0
LINE
  5
8B9
330
1E
100
AcDbEntity
  8
0
100
AcDbLine
 10
0.4248902672093145
 20
6.787583847293512
 30
0.0
 11
1.968802672129968
 21
6.787583847293512
 31
0.0
  0
LINE
  5
8BA
330
1E
100
AcDbEntity
  8
0
100
AcDbLine
 10
0.4248902672093145
 20
6.912583847293512
 30
0.0
 11
1.968802672129968
 21
6.912583847293512
 31
0.0
  0
LINE
  5
8BB
330
1E
100
AcDbEntity
  8
0
100
AcDbLine
 10
0.4248902672093145
 20
7.037583847293512
 30
0.0
 11
1.968802672129968
 21
7.037583847293512
 31
0.0
  0
LINE
  5
8BC
330
1E
100
AcDbEntity
  8
0
100
AcDbLine
 10
0.4248902672093145
 20
7.162583847293513
 30
0.0
 11
1.968802672129968
 21
7.162583847293513
 31
0.0
  0
MTEXT
  5
8BD
330
1E
100
AcDbEntity
  8
0
100
AcDbMText
 10
1.264706781115344
 20
5.922595876706809
 30
0.0
 40
0.125
 41
2.179
 71
     5
 72
     5
  1
{\fTahoma|b0|i0|c0|p34;\LMECHANICAL OUTLINE}
 73
     1
 44
1.0
  0
MTEXT
  5
8BE
330
1E
100
AcDbEntity
  8
0
100
AcDbMText
 10
1.244189998043325
 20
8.060029185836306
 30
0.0
 40
0.125
 41
2.179
 71
     5
 72
     5
  1
{\fTahoma|b0|i0|c0|p34;\LELECTRICAL ONE-LINE}
 73
     1
 44
1.0
  0
LINE
  5
8BF
330
1E
100
AcDbEntity
  8
0
100
AcDbLine
 10
1.174206959999815
 20
7.162583847293512
 30
0.0
 11
1.174206959999808
 21
6.412583847293512
 31
0.0
  0
MTEXT
  5
8C0
330
1E
100
AcDbEntity
  8
0
100
AcDbMText
 10
1.123840809936283
 20
6.597972710396789
 30
0.0
 40
0.0625
 41
0.7314
 71
     6
 72
     5
  1
SERVICE REQ.
 73
     1
 44
1.0
  0
MTEXT
  5
8C1
330
1E
100
AcDbEntity
  8
0
100
AcDbMText
 10
1.123840809936283
 20
6.722972710396789
 30
0.0
 40
0.0625
 41
0.7314
 71
     6
 72
     5
  1
AMPS/PHASE
 73
     1
 44
1.0
  0
MTEXT
  5
8C2
330
1E
100
AcDbEntity
  8
0
100
AcDbMText
 10
1.123840809936283
 20
6.843752183696325
 30
0.0
 40
0.0625
 41
0.7314
 71
     6
 72
     5
  1
# OF PHASES
 73
     1
 44
1.0
  0
MTEXT
  5
8C4
330
1E
100
AcDbEntity
  8
0
100
AcDbMText
 10
1.123840809936283
 20
6.472972710396789
 30
0.0
 40
0.0625
 41
0.7314
 71
     6
 72
     5
  1
WIRING
 73
     1
 44
1.0
  0
MTEXT
  5
8C5
330
1E
100
AcDbEntity
  8
0
100
AcDbMText
 10
1.123840809936283
 20
6.972972710396789
 30
0.0
 40
0.0625
 41
0.7314
 71
     6
 72
     5
  1
Hz
 73
     1
 44
1.0
  0
TEXT
  5
8C6
330
1E
100
AcDbEntity
  8
0
100
AcDbText
 10
1.214717311562883
 20
6.441722710396789
 30
0.0
 40
0.0625
  1
2W+G
100
AcDbText
  0
TEXT
  5
8C7
330
1E
100
AcDbEntity
  8
0
100
AcDbText
 10
1.214717311562883
 20
6.569192047703837
 30
0.0
 40
0.0625
  1
5A
100
AcDbText
  0
TEXT
  5
8C8
330
1E
100
AcDbEntity
  8
0
100
AcDbText
 10
1.205788740134313
 20
6.695943237097254
 30
0.0
 40
0.0625
  1
2.0 / 1.0 MAX.
100
AcDbText
  0
TEXT
  5
8C9
330
1E
100
AcDbEntity
  8
0
100
AcDbText
 10
1.205788740134313
 20
6.816722710396789
 30
0.0
 40
0.0625
  1
1
100
AcDbText
  0
TEXT
  5
8CA
330
1E
100
AcDbEntity
  8
0
100
AcDbText
 10
1.211741121086693
 20
6.941722710396789
 30
0.0
 40
0.0625
  1
60
100
AcDbText
  0
MTEXT
  5
8CB
330
1E
100
AcDbEntity
  8
0
100
AcDbMText
 10
1.177487577139985
 20
7.266464235412464
 30
0.0
 40
0.09
 41
1.060999999999999
 71
     5
 72
     5
  1
{\fArial|b0|i1|c0|p34;AC INPUT}
 73
     1
 44
1.0
  0
LWPOLYLINE
  5
8CC
330
1E
100
AcDbEntity
  8
0
 48
0.5
100
AcDbPolyline
 90
        4
 70
     1
 43
0.0
 10
1.933969788922866
 20
7.484858952372334
 10
0.4312909981974692
 20
7.484858952372334
 10
0.4312909981974692
 20
7.830878080186523
 10
1.933969788922866
 20
7.830878080186523
  0
LWPOLYLINE
  5
8CD
330
1E
100
AcDbEntity
  8
0
 48
0.5
100
AcDbPolyline
 90
        4
 70
     1
 43
0.0
 10
1.965219788922866
 20
7.453608952372334
 10
0.4000409981974692
 20
7.453608952372334
 10
0.4000409981974692
 20
7.862128080186523
 10
1.965219788922866
 20
7.862128080186523
  0
MTEXT
  5
8CE
330
1E
100
AcDbEntity
  8
0
100
AcDbMText
 10
1.123840809936283
 20
7.097972710396789
 30
0.0
 40
0.0625
 41
0.7314
 71
     6
 72
     5
  1
VOLTAGE
 73
     1
 44
1.0
  0
LINE
  5
8CF
330
1E
100
AcDbEntity
  8
Emergency
  6
DASHED
 48
0.5
100
AcDbLine
 10
1.169841263957793
 20
7.631921278898222
 30
0.0
 11
0.5351266361583676
 21
7.631921278898222
 31
0.0
  0
LINE
  5
8D1
330
1E
100
AcDbEntity
  8
Current
100
AcDbLine
 10
1.169145321939325
 20
7.73219707457077
 30
0.0
 11
0.5351266361583676
 21
7.73219707457077
 31
0.0
  0
TEXT
  5
8D2
330
1E
100
AcDbEntity
  8
0
100
AcDbText
 10
1.214717311562883
 20
7.066722710396789
 30
0.0
 40
0.0625
  1
120 OR 277VAC
100
AcDbText
  0
TEXT
  5
8D4
330
1E
100
AcDbEntity
  8
0
100
AcDbText
 10
1.042019579061915
 20
7.601137655883359
 30
0.0
 40
0.06249894
  1
   EMERGENCY
100
AcDbText
  0
TEXT
  5
8D5
330
1E
100
AcDbEntity
  8
0
100
AcDbText
 10
1.229619579061915
 20
7.701550058552632
 30
0.0
 40
0.06249894
  1
NORMAL
100
AcDbText
  0
MTEXT
  5
908
330
1E
100
AcDbEntity
  8
0
 48
0.5
100
AcDbMText
 10
3.826033128198983
 20
8.176349961273587
 30
0.0
 40
0.125
 41
2.2435
 71
     1
 72
     5
  1
{\fTahoma|b0|i0|c0|p34;CENTRAL INVERTER SYSTEM}
 73
     1
 44
1.0
  0
MTEXT
  5
96C
330
1E
100
AcDbEntity
  8
0
100
AcDbMText
 10
9.7899605249826
 20
8.018124457007402
 30
0.0
 40
0.062496
 41
1.75
 71
     5
 72
     5
  1
{\fArial Narrow|b0|i0|c0|p34;TOTAL OUTPUT LOAD NOT TO EXCEED UNIT VA}
 73
     1
 44
1.0
  0
MTEXT
  5
96D
330
1E
100
AcDbEntity
  8
0
100
AcDbMText
 10
9.7899605249826
 20
8.130310166296805
 30
0.0
 40
0.09
 41
0.875
 71
     5
 72
     5
  1
{\fArial|b0|i1|c0|p34;AC OUTPUT}
 73
     1
 44
1.0
  0
LWPOLYLINE
  5
EC9
330
1E
100
AcDbEntity
  8
0
 48
0.5
100
AcDbPolyline
 90
        2
 70
     0
 43
0.0175
 10
0.2445727324352604
 20
6.111074699923325
 10
10.74457273243526
 20
6.111074699923325
  0
LWPOLYLINE
  5
ECA
330
1E
100
AcDbEntity
  8
0
380
     2
100
AcDbPolyline
 90
        6
 70
   128
 43
0.02
 10
5.500027612899616
 20
0.2500528344222945
 10
0.2500276128996164
 20
0.2500528344222945
 10
0.2500276128996164
 20
8.250052834422294
 10
10.75002761289961
 20
8.250052834422294
 10
10.75002761289961
 20
0.2500528344222945
 10
5.500027612899616
 20
0.2500528344222945
  0
LWPOLYLINE
  5
ECB
330
1E
100
AcDbEntity
  8
0
380
     2
100
AcDbPolyline
 90
        2
 70
   128
 43
0.02
 10
6.650027612899616
 20
0.2500528344222945
 10
6.650027612899616
 20
6.105052834422295
  0
LWPOLYLINE
  5
ECC
330
1E
100
AcDbEntity
  8
0
390
F
100
AcDbPolyline
 90
        6
 70
   128
 43
0.02
 10
9.815000015361052
 20
1.095000001228471
 10
8.890000015361053
 20
1.095000001228471
 10
8.890000015361053
 20
0.5800000012284715
 10
10.75000001536105
 20
0.5800000012284715
 10
10.75000001536105
 20
1.095000001228471
 10
9.82500001536105
 20
1.095000001228471
  0
MTEXT
  5
ECD
330
1E
100
AcDbEntity
  8
0
100
AcDbMText
 10
6.717431391726728
 20
1.193459065576885
 30
0.0
 40
0.1
 41
4.0
 71
     4
 72
     5
  1
{\fTahoma|b0|i0|c0|p34;MODEL #: LV-1-W-1-G}
 73
     1
 44
1.0
  0
LWPOLYLINE
  5
ECE
330
1E
100
AcDbEntity
  8
0
390
F
100
AcDbPolyline
 90
        2
 70
   128
 43
0.02
 10
8.900027612899616
 20
0.5800528344222946
 10
10.75502761289961
 20
0.5800528344222946
  0
LWPOLYLINE
  5
ECF
330
1E
100
AcDbEntity
  8
0
380
     2
100
AcDbPolyline
 90
        2
 70
   128
 43
0.02
 10
6.655027612899617
 20
1.095052834422294
 10
10.75002761289961
 20
1.095052834422294
  0
LWPOLYLINE
  5
ED0
330
1E
100
AcDbEntity
  8
0
380
     2
100
AcDbPolyline
 90
        2
 70
   128
 43
0.02
 10
6.655027612899617
 20
1.315052834422294
 10
10.75002761289961
 20
1.315052834422294
  0
LWPOLYLINE
  5
ED1
330
1E
100
AcDbEntity
  8
0
380
     2
100
AcDbPolyline
 90
        2
 70
   128
 43
0.02
 10
6.655027612899617
 20
1.535052834422294
 10
10.75002761289961
 20
1.535052834422294
  0
MTEXT
  5
ED2
330
1E
100
AcDbEntity
  8
0
100
AcDbMText
 10
7.721372208461074
 20
0.7613967632223711
 30
0.0
 40
0.1
 41
3.799999999999999
 71
     5
 72
     5
  1
{\fTahoma|b0|i0|c0|p34;SERIES LV\P175W/VA ELECTRICAL & \PMECHANICAL PROPOSAL}
 73
     1
 44
1.0
  0
LWPOLYLINE
  5
ED3
330
1E
100
AcDbEntity
  8
0
380
     2
100
AcDbPolyline
 90
        2
 70
   128
 43
0.02
 10
6.650027612899616
 20
0.4250528344222947
 10
8.890027612899617
 20
0.4250528344222947
  0
LWPOLYLINE
  5
ED4
330
1E
100
AcDbEntity
  8
0
390
F
100
AcDbPolyline
 90
        2
 70
   128
 43
0.02
 10
8.890027612899617
 20
0.2500528344222945
 10
8.890027612899617
 20
1.095052834422294
  0
TEXT
  5
ED5
330
1E
100
AcDbEntity
  8
0
100
AcDbText
 10
7.828616123542508
 20
0.3062570435628018
 30
0.0
 40
0.0625
  1
DRAWN BY:
100
AcDbText
  0
TEXT
  5
ED6
330
1E
100
AcDbEntity
  8
0
100
AcDbText
 10
8.544628028304412
 20
0.3070903768961351
 30
0.0
 40
0.0625
  1
RD
 72
     1
 11
8.608616123542507
 21
0.2862570435628018
 31
0.0
100
AcDbText
 73
     1
  0
MTEXT
  5
ED7
330
1E
100
AcDbEntity
  8
0
100
AcDbMText
 10
6.717431391726728
 20
1.425636139280154
 30
0.0
 40
0.1
 41
4.0
 71
     4
 72
     5
  1
{\fTahoma|b0|i0|c0|p34;PROJECT: }
 73
     1
 44
1.0
  0
LWPOLYLINE
  5
ED8
330
1E
100
AcDbEntity
  8
0
380
     2
100
AcDbPolyline
 90
        2
 70
   128
 43
0.02
 10
7.770027612899616
 20
0.4250528344222947
 10
7.770027612899616
 20
0.2500528344222945
  0
MTEXT
  5
ED9
330
1E
100
AcDbEntity
  8
0
100
AcDbMText
 10
9.830702464152189
 20
0.3602764388692812
 30
0.0
 40
0.1
 41
1.705999999999999
 71
     5
 72
     5
  1
{\fTahoma|b0|i0|c0|p34;LV1W1G}
 73
     1
 44
1.0
  0
TEXT
  5
EDA
330
1E
100
AcDbEntity
  8
0
100
AcDbText
 10
8.956985094941849
 20
0.4594663362664207
 30
0.0
 40
0.0625
  1
DRAWING NUMBER:
100
AcDbText
  0
TEXT
  5
EDB
330
1E
100
AcDbEntity
  8
0
100
AcDbText
 10
7.111056599732983
 20
0.3070903768961351
 30
0.0
 40
0.0625
  1
01/08/19
 72
     1
 11
7.353616123542507
 21
0.2862570435628018
 31
0.0
100
AcDbText
 73
     1
  0
TEXT
  5
EDC
330
1E
100
AcDbEntity
  8
0
100
AcDbText
 10
6.713616123542507
 20
0.3062570435628018
 30
0.0
 40
0.0625
  1
DATE:
100
AcDbText
  0
INSERT
  5
1037
330
1E
100
AcDbEntity
  8
0
380
     2
100
AcDbBlockReference
  2
NEWLOGO
 10
9.771926090641478
 20
0.728195946832269
 30
0.0
  0
TEXT
  5
1530
330
1E
100
AcDbEntity
  8
0
100
AcDbText
 10
6.723633145382017
 20
5.60586067955614
 30
0.0
 40
0.0625
  1
BATTERY WARRANTY: 1 FULL YEAR, 9 YEAR PRORATA
100
AcDbText
  0
TEXT
  5
1531
330
1E
100
AcDbEntity
  8
0
100
AcDbText
 10
6.726781599997792
 20
5.70586067955614
 30
0.0
 40
0.0625
  1
SEALED LEAD CALCIUM VRLA/AGM (BAT-CG12033); QUANTITY:    PIECE(S)
100
AcDbText
  0
TEXT
  5
1532
330
1E
100
AcDbEntity
  8
0
100
AcDbText
 10
6.723633145382017
 20
5.80586067955614
 30
0.0
 40
0.0625
  1
BATTERIES INCLUDED FOR 90 MINUTE RUN
100
AcDbText
  0
MTEXT
  5
1659
330
1E
100
AcDbEntity
  8
0
100
AcDbMText
 10
8.671772773404573
 20
5.485014464476457
 30
0.0
 40
0.125
 41
2.5
 71
     5
 72
     5
  1
{\fTahoma|b0|i0|c0|p34;STANDARD FEATURES}
 73
     1
 44
1.0
  0
MTEXT
  5
165A
330
1E
100
AcDbEntity
  8
0
100
AcDbMText
 10
8.551594141348108
 20
4.303119724545945
 30
0.0
 40
0.125
 41
2.5
 71
     5
 72
     5
  1
{\fTahoma|b0|i0|c0|p34;SYSTEM OPTIONS}
 73
     1
 44
1.0
  0
MTEXT
  5
165B
330
1E
100
AcDbEntity
  8
0
100
AcDbMText
 10
8.621772773404568
 20
5.965279678632606
 30
0.0
 40
0.125
 41
2.5
 71
     5
 72
     5
  1
{\fTahoma|b0|i0|c0|p34;BATTERY DATA}
 73
     1
 44
1.0
  0
LINE
  5
1662
330
1E
100
AcDbEntity
  8
0
380
     2
100
AcDbLine
 10
9.715461700547564
 20
5.680634123950976
 30
0.0
 11
9.915461700547563
 21
5.680634123950976
 31
0.0
  0
TEXT
  5
1663
330
1E
100
AcDbEntity
  8
0
100
AcDbText
 10
9.78407731370425
 20
5.705860679556139
 30
0.0
 40
0.0625
  1
1
 72
     1
 11
9.809374932751868
 21
5.705860679556139
 31
0.0
100
AcDbText
  0
TEXT
  5
1F7E
330
1E
100
AcDbEntity
  8
0
100
AcDbText
 10
6.71601659075918
 20
5.220940294998053
 30
0.0
 40
0.0625
  1
ONE MINUTE INVERTER RETRANSFER DELAY UPON RETURN OF UTILITY POWER 
100
AcDbText
  0
TEXT
  5
1F7F
330
1E
100
AcDbEntity
  8
0
100
AcDbText
 10
6.71609499419579
 20
5.020204135181453
 30
0.0
 40
0.0625
  1
TYPE 1-STANDARD, UL924 SELF-TESTING & DIAGNOSTIC, LED INDICATOR PANEL
100
AcDbText
  0
TEXT
  5
1F80
330
1E
100
AcDbEntity
  8
0
100
AcDbText
 10
6.716209255901576
 20
4.820984413141315
 30
0.0
 40
0.0625
  1
SUMMARY ALARM DRY FORM C CONTACTS
100
AcDbText
  0
TEXT
  5
1F81
330
1E
100
AcDbEntity
  8
0
100
AcDbText
 10
6.713325624671169
 20
4.721037146996877
 30
0.0
 40
0.0625
  1
ELECTRONICS WARRANTY: 3 YEARS FULL (PARTS & LABOR)
100
AcDbText
  0
TEXT
  5
1F82
330
1E
100
AcDbEntity
  8
0
100
AcDbText
 10
6.715999956123331
 20
5.321008471159429
 30
0.0
 40
0.0625
  1
SYSTEM STATUS INDICATORS AND MOMENTARY TEST SWITCH
100
AcDbText
  0
TEXT
  5
1F83
330
1E
100
AcDbEntity
  8
0
100
AcDbText
 10
6.729035781923355
 20
4.921183386073543
 30
0.0
 40
0.0625
  1
INPUT FUSE AND BATTERY FUSE PROTECTION
100
AcDbText
  0
TEXT
  5
1F84
330
1E
100
AcDbEntity
  8
0
100
AcDbText
 10
6.707550418889701
 20
5.121515454631055
 30
0.0
 40
0.0625
  1
120V I/O or 277V I/O FIELD SELECTABLE VOLTAGES
100
AcDbText
  0
LINE
  5
2009
330
1E
100
AcDbEntity
  8
0
100
AcDbLine
 10
5.966616962801353
 20
6.965183203520368
 30
0.0
 11
5.966616962801353
 21
6.653314562591816
 31
0.0
  0
LINE
  5
200A
330
1E
100
AcDbEntity
  8
0
100
AcDbLine
 10
6.08814816465157
 20
7.04304282284184
 30
0.0
 11
6.08814816465157
 21
6.731174181913289
 31
0.0
  0
LINE
  5
200B
330
1E
100
AcDbEntity
  8
Emergency
  6
DASHED
 48
0.5
100
AcDbLine
 10
6.267196593093963
 20
7.338196755369418
 30
0.0
 11
6.267196593093949
 21
6.787139584644593
 31
0.0
  0
LINE
  5
200C
330
1E
100
AcDbEntity
  8
0
100
AcDbLine
 10
3.236915225377316
 20
6.899703630086712
 30
0.0
 11
3.236915225377316
 21
6.661302338684116
 31
0.0
  0
LINE
  5
200D
330
1E
100
AcDbEntity
  8
0
100
AcDbLine
 10
3.329817145174502
 20
6.959221745595506
 30
0.0
 11
3.329817145174502
 21
6.720820454192896
 31
0.0
  0
LINE
  5
200E
330
1E
100
AcDbEntity
  8
0
100
AcDbLine
 10
2.73578342032647
 20
6.661302338684116
 30
0.0
 11
2.73578342032647
 21
6.899703630086712
 31
0.0
  0
LINE
  5
200F
330
1E
100
AcDbEntity
  8
0
100
AcDbLine
 10
5.240095353225107
 20
6.653314562591816
 30
0.0
 11
5.240095353225107
 21
6.965183203520368
 31
0.0
  0
LINE
  5
2010
330
1E
100
AcDbEntity
  8
0
100
AcDbLine
 10
4.891843222387102
 20
7.022273245952096
 30
0.0
 11
4.891843222387102
 21
6.568255037279076
 31
0.0
  0
LINE
  5
2011
330
1E
100
AcDbEntity
  8
0
100
AcDbLine
 10
5.013374424237319
 20
7.100132865273568
 30
0.0
 11
5.013374424237291
 21
6.646114656600563
 31
0.0
  0
LINE
  5
2012
330
1E
100
AcDbEntity
  8
0
100
AcDbLine
 10
3.603472806269337
 20
6.568255037279062
 30
0.0
 11
3.603472806269309
 21
7.022273245952096
 31
0.0
  0
MTEXT
  5
2013
330
1E
100
AcDbEntity
  8
0
 48
0.5
100
AcDbMText
 10
4.251932674300768
 20
6.788919776426556
 30
0.0
 40
0.0625
 41
1.844
 71
     5
 72
     5
  1
{\Fromans.shx;MICROPROCESSOR\PCONTROLLED PWM\PBI-DIRECTIONAL\PINVERTER/BATT. CHARGER}
 73
     1
 44
1.0
1001
ACAD
1000
MTEXTBEGIN
1070
    73
1070
     1
1070
    44
1040
1.0
1070
    74
1070
     0
1000
MTEXTEND
  0
LWPOLYLINE
  5
2014
330
1E
100
AcDbEntity
  8
0
  6
DASHED
 48
2.0
100
AcDbPolyline
 90
        4
 70
     1
 43
0.0
 10
2.469231754533353
 20
7.994429893824431
 10
7.631518735270812
 20
7.994429893824431
 10
7.631518735270812
 20
6.340380531995105
 10
2.469231754533325
 20
6.340380531995105
  0
MTEXT
  5
2015
330
1E
100
AcDbEntity
  8
0
100
AcDbMText
 10
5.597487376060534
 20
6.809753070215464
 30
0.0
 40
0.0625
 41
0.566
 71
     5
 72
     5
  1
{\Fromans.shx;OUTPUT\PTRANSFORMER}
 73
     1
 44
1.0
1001
ACAD
1000
MTEXTBEGIN
1070
    73
1070
     1
1070
    44
1040
1.0
1070
    74
1070
     0
1000
MTEXTEND
  0
LINE
  5
2016
330
1E
100
AcDbEntity
  8
0
100
AcDbLine
 10
5.966616962801353
 20
6.653314562591802
 30
0.0
 11
5.240095353225107
 21
6.653314562591816
 31
0.0
  0
LINE
  5
2017
330
1E
100
AcDbEntity
  8
Emergency
  6
DASHED
 48
0.5
100
AcDbLine
 10
3.517540199977553
 20
6.766781785599544
 30
0.0
 11
3.294717725883991
 21
6.766781785599567
 31
0.0
  0
LINE
  5
2018
330
1E
100
AcDbEntity
  8
0
100
AcDbLine
 10
3.236915225377316
 20
6.661302338684116
 30
0.0
 11
2.73578342032647
 21
6.661302338684116
 31
0.0
  0
MTEXT
  5
2019
330
1E
100
AcDbEntity
  8
0
100
AcDbMText
 10
2.989506731609594
 20
6.781599522062556
 30
0.0
 40
0.0625
 41
0.45
 71
     5
 72
     5
  1
{\Fromans.shx;BATTERY}
 73
     1
 44
1.0
1001
ACAD
1000
MTEXTBEGIN
1070
    73
1070
     1
1070
    44
1040
1.0
1070
    74
1070
     0
1000
MTEXTEND
  0
LINE
  5
201A
330
1E
100
AcDbEntity
  8
0
100
AcDbLine
 10
3.329817145174502
 20
6.720820454192896
 30
0.0
 11
3.236915225377316
 21
6.661302338684116
 31
0.0
  0
LINE
  5
201B
330
1E
100
AcDbEntity
  8
0
100
AcDbLine
 10
4.891843222387073
 20
6.568255037279062
 30
0.0
 11
3.603472806269309
 21
6.568255037279076
 31
0.0
  0
SOLID
  5
201C
330
1E
100
AcDbEntity
  8
0
100
AcDbTrace
 10
3.489776798812279
 20
6.785639316425932
 30
0.0
 11
3.489776798812279
 21
6.748139316425923
 31
0.0
 12
3.60227679881229
 22
6.766889316425935
 32
0.0
 13
3.60227679881229
 23
6.766889316425935
 33
0.0
  0
LINE
  5
201D
330
1E
100
AcDbEntity
  8
0
100
AcDbLine
 10
5.013374424237319
 20
6.646114656600563
 30
0.0
 11
4.891843222387102
 21
6.568255037279076
 31
0.0
  0
LINE
  5
201E
330
1E
100
AcDbEntity
  8
Emergency
  6
DASHED
 48
0.5
100
AcDbLine
 10
5.152241309548834
 20
6.766781785599544
 30
0.0
 11
4.929418835455276
 21
6.766781785599567
 31
0.0
  0
SOLID
  5
201F
330
1E
100
AcDbEntity
  8
0
100
AcDbTrace
 10
5.12447790838356
 20
6.785639316425932
 30
0.0
 11
5.12447790838356
 21
6.748139316425923
 31
0.0
 12
5.24003365410541
 22
6.766889316425935
 32
0.0
 13
5.24003365410541
 23
6.766889316425935
 33
0.0
  0
LINE
  5
2020
330
1E
100
AcDbEntity
  8
Emergency
  6
DASHED
 48
0.5
100
AcDbLine
 10
6.267196593093949
 20
6.787139584644593
 30
0.0
 11
7.741735872821308
 21
6.787139584644594
 31
0.0
  0
LINE
  5
2021
330
1E
100
AcDbEntity
  8
0
100
AcDbLine
 10
6.08814816465157
 20
6.731174181913289
 30
0.0
 11
5.966616962801353
 21
6.653314562591816
 31
0.0
  0
TEXT
  5
2022
330
1E
100
AcDbEntity
  8
0
100
AcDbText
 10
7.957316641713717
 20
6.650968577066782
 30
0.0
 40
0.0625
  1
SWITCHED
100
AcDbText
  0
SOLID
  5
2023
330
1E
100
AcDbEntity
  8
0
100
AcDbTrace
 10
7.71782539365757
 20
6.805166361165609
 30
0.0
 11
7.71782539365757
 21
6.767666361165614
 31
0.0
 12
7.830325393657581
 22
6.786416361165612
 32
0.0
 13
7.830325393657581
 23
6.786416361165612
 33
0.0
  0
TEXT
  5
2024
330
1E
100
AcDbEntity
  8
0
100
AcDbText
 10
8.105265701704645
 20
6.747142664079632
 30
0.0
 40
0.0625
  1
OR
100
AcDbText
  0
LWPOLYLINE
  5
2025
330
1E
100
AcDbEntity
  8
0
100
AcDbPolyline
 90
        2
 70
     0
 10
5.574224915074395
 20
7.325604175064434
 40
0.0
 41
0.09720703125
 10
5.487144380021547
 20
7.325065337832462
 40
0.09720703125
 41
0.09720703125
  0
LINE
  5
2026
330
1E
100
AcDbEntity
  8
0
100
AcDbLine
 10
5.418329051498218
 20
7.513582477372188
 30
0.0
 11
5.872785889320468
 21
7.241211280824153
 31
0.0
  0
LINE
  5
2027
330
1E
100
AcDbEntity
  8
0
100
AcDbLine
 10
5.872785889320468
 20
7.241211280824153
 30
0.0
 11
5.418329051498218
 21
7.241211280824153
 31
0.0
  0
LINE
  5
2028
330
1E
100
AcDbEntity
  8
0
100
AcDbLine
 10
5.418329051498218
 20
7.513582477372188
 30
0.0
 11
5.872785889320468
 21
7.513582477372188
 31
0.0
  0
LINE
  5
2029
330
1E
100
AcDbEntity
  8
0
100
AcDbLine
 10
5.511230971295404
 20
7.573100592880968
 30
0.0
 11
5.965687809117653
 21
7.573100592880968
 31
0.0
  0
LINE
  5
202A
330
1E
100
AcDbEntity
  8
0
100
AcDbLine
 10
5.240095353225107
 20
6.965183203520368
 30
0.0
 11
5.966616962801353
 21
6.965183203520368
 31
0.0
  0
LINE
  5
202B
330
1E
100
AcDbEntity
  8
0
100
AcDbLine
 10
5.361626555075325
 20
7.04304282284184
 30
0.0
 11
6.08814816465157
 21
7.043042822841826
 31
0.0
  0
ARC
  5
202C
330
1E
100
AcDbEntity
  8
0
390
F
100
AcDbCircle
 10
3.393059875068402
 20
7.372551647751309
 30
0.0
 40
0.0443140250837999
100
AcDbArc
 50
180.0
 51
332.7294151767028
  0
MTEXT
  5
202D
330
1E
100
AcDbEntity
  8
0
100
AcDbMText
 10
3.353418094672349
 20
7.551083564319611
 30
0.0
 40
0.0625
 41
0.5660000000000001
 71
     5
 72
     5
  1
INPUT\PFUSE
 73
     1
 44
1.0
1001
ACAD
1000
MTEXTBEGIN
1070
    73
1070
     1
1070
    44
1040
1.0
1070
    74
1070
     0
1000
MTEXTEND
  0
LINE
  5
202E
330
1E
100
AcDbEntity
  8
Current
100
AcDbLine
 10
3.595511020515324
 20
6.864240911752364
 30
0.0
 11
3.299028879537935
 21
6.864240911752364
 31
0.0
  0
SOLID
  5
202F
330
1E
100
AcDbEntity
  8
0
100
AcDbTrace
 10
3.397507476977843
 20
6.846530896260606
 30
0.0
 11
3.397507476977843
 21
6.8840308962606
 31
0.0
 12
3.28500747697786
 22
6.865280896260603
 32
0.0
 13
3.28500747697786
 23
6.865280896260603
 33
0.0
  0
LINE
  5
2030
330
1E
100
AcDbEntity
  8
Current
100
AcDbLine
 10
3.237557919023036
 20
7.37250830594969
 30
0.0
 11
2.28844530111602
 21
7.372508305949692
 31
0.0
  0
LINE
  5
2031
330
1E
100
AcDbEntity
  8
0
100
AcDbLine
 10
2.828685340123655
 20
6.959221745595506
 30
0.0
 11
3.329817145174502
 21
6.959221745595506
 31
0.0
  0
LINE
  5
2032
330
1E
100
AcDbEntity
  8
0
100
AcDbLine
 10
2.73578342032647
 20
6.899703630086712
 30
0.0
 11
3.236915225377316
 21
6.899703630086712
 31
0.0
  0
LINE
  5
2033
330
1E
100
AcDbEntity
  8
0
100
AcDbLine
 10
2.828685340123655
 20
6.959221745595506
 30
0.0
 11
2.73578342032647
 21
6.899703630086712
 31
0.0
  0
LINE
  5
2034
330
1E
100
AcDbEntity
  8
0
100
AcDbLine
 10
3.236915225377316
 20
6.899703630086712
 30
0.0
 11
3.329817145174502
 21
6.959221745595506
 31
0.0
  0
SOLID
  5
2035
330
1E
100
AcDbEntity
  8
0
100
AcDbTrace
 10
2.351057826731583
 20
7.393634486374903
 30
0.0
 11
2.351057826731583
 21
7.356134486374909
 31
0.0
 12
2.463557826731594
 22
7.374884486374906
 32
0.0
 13
2.463557826731594
 23
7.374884486374906
 33
0.0
  0
CIRCLE
  5
2036
330
1E
100
AcDbEntity
  8
0
100
AcDbCircle
 10
3.258427874705223
 20
7.372147041538468
 30
0.0
 40
0.0208730822388838
  0
ARC
  5
2037
330
1E
100
AcDbEntity
  8
0
390
F
100
AcDbCircle
 10
3.304431824900802
 20
7.372551647751309
 30
0.0
 40
0.0443140250837999
100
AcDbArc
 50
0.0
 51
153.8647537895845
  0
LINE
  5
2038
330
1E
100
AcDbEntity
  8
0
100
AcDbLine
 10
5.511230971295404
 20
7.573100592880968
 30
0.0
 11
5.418329051498218
 21
7.513582477372188
 31
0.0
  0
MTEXT
  5
2039
330
1E
100
AcDbEntity
  8
0
100
AcDbMText
 10
5.134134066273865
 20
7.575076635338945
 30
0.0
 40
0.0625
 41
0.566
 71
     5
 72
     5
  1
{\Fromans.shx;AUTOMATIC\PTRANSFER\PMODULE}
 73
     1
 44
1.0
1001
ACAD
1000
MTEXTBEGIN
1070
    73
1070
     1
1070
    44
1040
1.0
1070
    74
1070
     0
1000
MTEXTEND
  0
LINE
  5
203A
330
1E
100
AcDbEntity
  8
0
100
AcDbLine
 10
3.603472806269309
 20
7.022273245952096
 30
0.0
 11
4.891843222387073
 21
7.022273245952096
 31
0.0
  0
LINE
  5
203B
330
1E
100
AcDbEntity
  8
0
100
AcDbLine
 10
3.750004008119525
 20
7.100132865273568
 30
0.0
 11
5.013374424237348
 21
7.100132865273568
 31
0.0
  0
LINE
  5
203C
330
1E
100
AcDbEntity
  8
Current
100
AcDbLine
 10
3.459403747707199
 20
7.372654294735731
 30
0.0
 11
5.418325948702182
 21
7.372654294735706
 31
0.0
  0
LINE
  5
203D
330
1E
100
AcDbEntity
  8
0
100
AcDbLine
 10
3.750004008119525
 20
7.100132865273568
 30
0.0
 11
3.603472806269309
 21
7.022273245952096
 31
0.0
  0
CIRCLE
  5
203E
330
1E
100
AcDbEntity
  8
0
100
AcDbCircle
 10
3.43874805175475
 20
7.372147041538468
 30
0.0
 40
0.0208730822388838
  0
SOLID
  5
203F
330
1E
100
AcDbEntity
  8
0
100
AcDbTrace
 10
3.753991686056416
 20
7.391404294735728
 30
0.0
 11
3.753991686056416
 21
7.35390429473572
 31
0.0
 12
3.866491686056399
 22
7.372654294735717
 32
0.0
 13
3.866491686056399
 23
7.372654294735717
 33
0.0
  0
LINE
  5
2040
330
1E
100
AcDbEntity
  8
0
100
AcDbLine
 10
4.891843222387102
 20
7.022273245952096
 30
0.0
 11
5.013374424237319
 21
7.100132865273568
 31
0.0
  0
LINE
  5
2041
330
1E
100
AcDbEntity
  8
Current
100
AcDbLine
 10
5.240095353225107
 20
6.864240911752364
 30
0.0
 11
4.943613212247718
 21
6.864240911752364
 31
0.0
  0
SOLID
  5
2042
330
1E
100
AcDbEntity
  8
0
100
AcDbTrace
 10
5.042091809687626
 20
6.846530896260606
 30
0.0
 11
5.042091809687626
 21
6.8840308962606
 31
0.0
 12
4.929591809687643
 22
6.865280896260603
 32
0.0
 13
4.929591809687643
 23
6.865280896260603
 33
0.0
  0
LINE
  5
2043
330
1E
100
AcDbEntity
  8
0
100
AcDbLine
 10
5.361626555075325
 20
7.04304282284184
 30
0.0
 11
5.240095353225107
 21
6.965183203520368
 31
0.0
  0
SOLID
  5
2044
330
1E
100
AcDbEntity
  8
0
100
AcDbTrace
 10
4.5262782669053
 20
7.391404294735728
 30
0.0
 11
4.5262782669053
 21
7.35390429473572
 31
0.0
 12
4.638778266905312
 22
7.372654294735717
 32
0.0
 13
4.638778266905312
 23
7.372654294735717
 33
0.0
  0
LINE
  5
2045
330
1E
100
AcDbEntity
  8
0
100
AcDbLine
 10
5.418329051498218
 20
7.241211280824153
 30
0.0
 11
5.418329051498218
 21
7.513582477372188
 31
0.0
  0
SOLID
  5
2046
330
1E
100
AcDbEntity
  8
0
100
AcDbTrace
 10
5.230632142265662
 20
7.391404294735728
 30
0.0
 11
5.230632142265662
 21
7.35390429473572
 31
0.0
 12
5.343132142265645
 22
7.372654294735717
 32
0.0
 13
5.343132142265645
 23
7.372654294735717
 33
0.0
  0
LINE
  5
2047
330
1E
100
AcDbEntity
  8
Current
100
AcDbLine
 10
7.741639756231144
 20
7.462702097898345
 30
0.0
 11
5.923191351926369
 21
7.462702097898345
 31
0.0
  0
LINE
  5
2048
330
1E
100
AcDbEntity
  8
Emergency
  6
DASHED
 48
0.5
100
AcDbLine
 10
5.923191351926369
 20
7.398667557662577
 30
0.0
 11
7.713401326109345
 21
7.398667557662578
 31
0.0
  0
LINE
  5
2049
330
1E
100
AcDbEntity
  8
0
100
AcDbLine
 10
5.872785889320468
 20
7.513582477372188
 30
0.0
 11
5.965687809117653
 21
7.573100592880968
 31
0.0
  0
LINE
  5
204A
330
1E
100
AcDbEntity
  8
0
100
AcDbLine
 10
5.965687809117653
 20
7.573100592880968
 30
0.0
 11
5.965687809117653
 21
7.300729396332933
 31
0.0
  0
SOLID
  5
204B
330
1E
100
AcDbEntity
  8
0
100
AcDbTrace
 10
5.575828993111485
 20
7.190271342206774
 30
0.0
 11
5.613328993111451
 21
7.190271342206774
 31
0.0
 12
5.594578993111468
 22
7.077771342206791
 32
0.0
 13
5.594578993111468
 23
7.077771342206791
 33
0.0
  0
SOLID
  5
204C
330
1E
100
AcDbEntity
  8
0
100
AcDbTrace
 10
5.715952225881267
 20
7.079799928485375
 30
0.0
 11
5.753452225881261
 21
7.079799928485375
 31
0.0
 12
5.734702225881278
 22
7.192299928485358
 32
0.0
 13
5.734702225881278
 23
7.192299928485358
 33
0.0
  0
LINE
  5
204D
330
1E
100
AcDbEntity
  8
Current
 48
0.5
100
AcDbLine
 10
5.594578993111497
 20
7.241211280824153
 30
0.0
 11
5.594578993111497
 21
6.995770334892728
 31
0.0
  0
LINE
  5
204E
330
1E
100
AcDbEntity
  8
Emergency
  6
DASHED
 48
0.25
100
AcDbLine
 10
5.734702225881278
 20
7.241211280824153
 30
0.0
 11
5.73470222588125
 21
6.995770334892728
 31
0.0
  0
LINE
  5
204F
330
1E
100
AcDbEntity
  8
0
100
AcDbLine
 10
5.966616962801353
 20
6.965183203520368
 30
0.0
 11
6.08814816465157
 21
7.04304282284184
 31
0.0
  0
LINE
  5
2050
330
1E
100
AcDbEntity
  8
Emergency
  6
DASHED
 48
0.5
100
AcDbLine
 10
5.923191351926369
 20
7.338196235049999
 30
0.0
 11
6.267196593093963
 21
7.338196755369418
 31
0.0
  0
LINE
  5
2051
330
1E
100
AcDbEntity
  8
0
100
AcDbLine
 10
5.574226263153505
 20
7.277129596376916
 30
0.0
 11
5.574226263153505
 21
7.374078781035883
 31
0.0
  0
LINE
  5
2052
330
1E
100
AcDbEntity
  8
0
100
AcDbLine
 10
5.872785889320468
 20
7.513582477372188
 30
0.0
 11
5.872785889320468
 21
7.241211280824153
 31
0.0
  0
LINE
  5
2053
330
1E
100
AcDbEntity
  8
0
100
AcDbLine
 10
5.597638257698392
 20
7.270761600678149
 30
0.0
 11
5.574226263153505
 21
7.292854621837356
 31
0.0
  0
LINE
  5
2054
330
1E
100
AcDbEntity
  8
0
100
AcDbLine
 10
5.965687809117653
 20
7.300729396332933
 30
0.0
 11
5.872785889320468
 21
7.241211280824153
 31
0.0
  0
LINE
  5
2055
330
1E
100
AcDbEntity
  8
0
100
AcDbLine
 10
5.813323978340648
 20
7.379926863358299
 30
0.0
 11
5.789911983795761
 21
7.402019884517507
 31
0.0
  0
LINE
  5
2056
330
1E
100
AcDbEntity
  8
0
100
AcDbLine
 10
5.789911983795761
 20
7.386294859057052
 30
0.0
 11
5.789911983795761
 21
7.483244043716034
 31
0.0
  0
LWPOLYLINE
  5
2057
330
1E
100
AcDbEntity
  8
0
100
AcDbPolyline
 90
        2
 70
     0
 10
5.789910635716651
 20
7.434769437744584
 40
0.0
 41
0.09720703125
 10
5.702830100663803
 20
7.434230600512599
 40
0.09720703125
 41
0.09720703125
  0
TEXT
  5
2058
330
1E
100
AcDbEntity
  8
0
100
AcDbText
 10
7.722780468397779
 20
6.84704660662485
 30
0.0
 40
0.0625
  1
* NORMALLY OFF
100
AcDbText
  0
TEXT
  5
2059
330
1E
100
AcDbEntity
  8
0
100
AcDbText
 10
7.989915301027764
 20
7.354497643214108
 30
0.0
 40
0.0625
  1
OUTPUT
100
AcDbText
  0
TEXT
  5
205A
330
1E
100
AcDbEntity
  8
0
100
AcDbText
 10
7.838593442995879
 20
7.458664309880774
 30
0.0
 40
0.0625
  1
NORMALLY ON
100
AcDbText
  0
SOLID
  5
205B
330
1E
100
AcDbEntity
  8
0
100
AcDbTrace
 10
7.707907410463867
 20
7.48149795102484
 30
0.0
 11
7.707907410463867
 21
7.443997951024831
 31
0.0
 12
7.820407410463879
 22
7.462747951024843
 32
0.0
 13
7.820407410463879
 23
7.462747951024843
 33
0.0
  0
SOLID
  5
205C
330
1E
100
AcDbEntity
  8
0
100
AcDbTrace
 10
7.707907410463867
 20
7.416784064421532
 30
0.0
 11
7.707907410463867
 21
7.379284064421538
 31
0.0
 12
7.820407410463879
 22
7.398034064421535
 32
0.0
 13
7.820407410463879
 23
7.398034064421535
 33
0.0
  0
TEXT
  5
205D
330
1E
100
AcDbEntity
  8
0
100
AcDbText
 10
9.527844443700047
 20
6.328262640034708
 30
0.0
 40
0.0625
  1
1.45 / .63 MAX.
100
AcDbText
  0
TEXT
  5
205F
330
1E
100
AcDbEntity
  8
0
100
AcDbText
 10
9.54458099223439
 20
7.838548918026546
 30
0.0
 40
0.0625
  1
120 OR 277VAC NORM.
100
AcDbText
  0
TEXT
  5
2060
330
1E
100
AcDbEntity
  8
0
100
AcDbText
 10
9.54458099223439
 20
7.713548918026546
 30
0.0
 40
0.0625
  1
120 OR 277VAC EMERG.
100
AcDbText
  0
TEXT
  5
2061
330
1E
100
AcDbEntity
  8
0
100
AcDbText
 10
9.535652420805817
 20
7.338548918026546
 30
0.0
 40
0.0625
  1
1.45 / .63 MAX.
100
AcDbText
  0
TEXT
  5
2062
330
1E
100
AcDbEntity
  8
0
100
AcDbText
 10
9.54458099223439
 20
6.697885027797457
 30
0.0
 40
0.0625
  1
120 OR 277VAC EMERG.
100
AcDbText
  0
TEXT
  5
2063
330
1E
100
AcDbEntity
  8
0
100
AcDbText
 10
9.54458099223439
 20
6.822885027797457
 30
0.0
 40
0.0625
  1
0VAC NORM.
100
AcDbText
  0
LINE
  5
2064
330
1E
100
AcDbEntity
  8
0
100
AcDbLine
 10
8.784931524220066
 20
7.934410054923271
 30
0.0
 11
10.50918789547097
 21
7.934410054923271
 31
0.0
  0
LINE
  5
2065
330
1E
100
AcDbEntity
  8
0
100
AcDbLine
 10
8.784931524220066
 20
7.809410054923271
 30
0.0
 11
10.50918789547097
 21
7.809410054923267
 31
0.0
  0
LINE
  5
2066
330
1E
100
AcDbEntity
  8
0
100
AcDbLine
 10
8.784931524220066
 20
7.684410054923269
 30
0.0
 11
10.50918789547097
 21
7.684410054923269
 31
0.0
  0
LINE
  5
2067
330
1E
100
AcDbEntity
  8
0
100
AcDbLine
 10
8.784931524220066
 20
7.559410054923269
 30
0.0
 11
10.50918789547097
 21
7.559410054923271
 31
0.0
  0
LINE
  5
2068
330
1E
100
AcDbEntity
  8
0
100
AcDbLine
 10
8.784931524220066
 20
7.434410054923269
 30
0.0
 11
10.50918789547097
 21
7.434410054923269
 31
0.0
  0
LINE
  5
2069
330
1E
100
AcDbEntity
  8
0
100
AcDbLine
 10
8.784931524220066
 20
7.309410054923269
 30
0.0
 11
10.50918789547097
 21
7.309410054923269
 31
0.0
  0
LINE
  5
206A
330
1E
100
AcDbEntity
  8
0
100
AcDbLine
 10
8.784931524220066
 20
7.184410054923269
 30
0.0
 11
10.50918789547097
 21
7.184410054923269
 31
0.0
  0
LINE
  5
206B
330
1E
100
AcDbEntity
  8
0
100
AcDbLine
 10
8.784931524220066
 20
6.16874616469418
 30
0.0
 11
10.50918789547097
 21
6.16874616469418
 31
0.0
  0
LINE
  5
206C
330
1E
100
AcDbEntity
  8
0
100
AcDbLine
 10
8.784931524220066
 20
6.29374616469418
 30
0.0
 11
10.50918789547097
 21
6.29374616469418
 31
0.0
  0
LINE
  5
206D
330
1E
100
AcDbEntity
  8
0
100
AcDbLine
 10
8.784931524220066
 20
6.41874616469418
 30
0.0
 11
10.50918789547097
 21
6.41874616469418
 31
0.0
  0
LINE
  5
206E
330
1E
100
AcDbEntity
  8
0
100
AcDbLine
 10
8.784931524220066
 20
6.54374616469418
 30
0.0
 11
10.50918789547097
 21
6.543746164694184
 31
0.0
  0
LINE
  5
206F
330
1E
100
AcDbEntity
  8
0
100
AcDbLine
 10
8.784931524220066
 20
6.66874616469418
 30
0.0
 11
10.50918789547097
 21
6.66874616469418
 31
0.0
  0
LINE
  5
2070
330
1E
100
AcDbEntity
  8
0
100
AcDbLine
 10
8.784931524220066
 20
6.79374616469418
 30
0.0
 11
10.50918789547097
 21
6.793746164694178
 31
0.0
  0
LINE
  5
2071
330
1E
100
AcDbEntity
  8
0
100
AcDbLine
 10
8.784931524220066
 20
6.91874616469418
 30
0.0
 11
10.50918789547097
 21
6.91874616469418
 31
0.0
  0
MTEXT
  5
2072
330
1E
100
AcDbEntity
  8
0
100
AcDbMText
 10
9.453704490607794
 20
6.854135027797457
 30
0.0
 40
0.0625
 41
0.7314
 71
     6
 72
     5
  1
VOLTAGE
 73
     1
 44
1.0
1001
ACAD
1000
MTEXTBEGIN
1070
    73
1070
     1
1070
    44
1040
1.0
1070
    74
1070
     0
1000
MTEXTEND
  0
LINE
  5
2073
330
1E
100
AcDbEntity
  8
0
100
AcDbLine
 10
9.512541134434389
 20
6.91874616469418
 30
0.0
 11
9.512541134434389
 21
6.16874616469418
 31
0.0
  0
MTEXT
  5
2074
330
1E
100
AcDbEntity
  8
0
100
AcDbMText
 10
9.453704490607794
 20
6.479135027797457
 30
0.0
 40
0.0625
 41
0.7314
 71
     6
 72
     5
  1
# OF PHASES
 73
     1
 44
1.0
1001
ACAD
1000
MTEXTBEGIN
1070
    73
1070
     1
1070
    44
1040
1.0
1070
    74
1070
     0
1000
MTEXTEND
  0
TEXT
  5
2075
330
1E
100
AcDbEntity
  8
0
100
AcDbText
 10
9.609421575499581
 20
6.447885027797457
 30
0.0
 40
0.0625
  1
1
100
AcDbText
  0
MTEXT
  5
2076
330
1E
100
AcDbEntity
  8
0
100
AcDbMText
 10
9.453704490607794
 20
6.229135027797457
 30
0.0
 40
0.0625
 41
0.7314
 71
     6
 72
     5
  1
WIRING
 73
     1
 44
1.0
1001
ACAD
1000
MTEXTBEGIN
1070
    73
1070
     1
1070
    44
1040
1.0
1070
    74
1070
     0
1000
MTEXTEND
  0
MTEXT
  5
2077
330
1E
100
AcDbEntity
  8
0
100
AcDbMText
 10
9.453704490607794
 20
6.354135027797457
 30
0.0
 40
0.0625
 41
0.7314
 71
     6
 72
     5
  1
AMPS/PHASE
 73
     1
 44
1.0
1001
ACAD
1000
MTEXTBEGIN
1070
    73
1070
     1
1070
    44
1040
1.0
1070
    74
1070
     0
1000
MTEXTEND
  0
TEXT
  5
2078
330
1E
100
AcDbEntity
  8
0
100
AcDbText
 10
9.54458099223439
 20
6.197885027797457
 30
0.0
 40
0.0625
  1
2W+G
100
AcDbText
  0
MTEXT
  5
2079
330
1E
100
AcDbEntity
  8
0
100
AcDbMText
 10
9.453704490607794
 20
6.729135027797457
 30
0.0
 40
0.0625
 41
0.7314
 71
     6
 72
     5
  1
VOLTAGE
 73
     1
 44
1.0
1001
ACAD
1000
MTEXTBEGIN
1070
    73
1070
     1
1070
    44
1040
1.0
1070
    74
1070
     0
1000
MTEXTEND
  0
MTEXT
  5
207A
330
1E
100
AcDbEntity
  8
0
100
AcDbMText
 10
9.453704490607794
 20
6.604135027797457
 30
0.0
 40
0.0625
 41
0.7314
 71
     6
 72
     5
  1
Hz
 73
     1
 44
1.0
1001
ACAD
1000
MTEXTBEGIN
1070
    73
1070
     1
1070
    44
1040
1.0
1070
    74
1070
     0
1000
MTEXTEND
  0
TEXT
  5
207B
330
1E
100
AcDbEntity
  8
0
100
AcDbText
 10
9.615373956451961
 20
6.572885027797457
 30
0.0
 40
0.0625
  1
60
100
AcDbText
  0
TEXT
  5
207C
330
1E
100
AcDbEntity
  8
0
100
AcDbText
 10
9.609421575499581
 20
7.463548918026546
 30
0.0
 40
0.0625
  1
1
100
AcDbText
  0
MTEXT
  5
207D
330
1E
100
AcDbEntity
  8
0
100
AcDbMText
 10
9.453704490607794
 20
7.494798918026546
 30
0.0
 40
0.0625
 41
0.7314
 71
     6
 72
     5
  1
# OF PHASES
 73
     1
 44
1.0
1001
ACAD
1000
MTEXTBEGIN
1070
    73
1070
     1
1070
    44
1040
1.0
1070
    74
1070
     0
1000
MTEXTEND
  0
LINE
  5
207E
330
1E
100
AcDbEntity
  8
0
100
AcDbLine
 10
9.512541134434389
 20
7.934410054923271
 30
0.0
 11
9.512541134434389
 21
7.184410054923269
 31
0.0
  0
MTEXT
  5
207F
330
1E
100
AcDbEntity
  8
0
100
AcDbMText
 10
9.453704490607794
 20
7.369798918026546
 30
0.0
 40
0.0625
 41
0.7314
 71
     6
 72
     5
  1
AMPS/PHASE
 73
     1
 44
1.0
1001
ACAD
1000
MTEXTBEGIN
1070
    73
1070
     1
1070
    44
1040
1.0
1070
    74
1070
     0
1000
MTEXTEND
  0
MTEXT
  5
2080
330
1E
100
AcDbEntity
  8
0
100
AcDbMText
 10
9.453704490607794
 20
7.244798918026546
 30
0.0
 40
0.0625
 41
0.7314
 71
     6
 72
     5
  1
WIRING
 73
     1
 44
1.0
1001
ACAD
1000
MTEXTBEGIN
1070
    73
1070
     1
1070
    44
1040
1.0
1070
    74
1070
     0
1000
MTEXTEND
  0
TEXT
  5
2081
330
1E
100
AcDbEntity
  8
0
100
AcDbText
 10
9.54458099223439
 20
7.213548918026546
 30
0.0
 40
0.0625
  1
2W+G
100
AcDbText
  0
MTEXT
  5
2082
330
1E
100
AcDbEntity
  8
0
100
AcDbMText
 10
9.453704490607794
 20
7.869798918026546
 30
0.0
 40
0.0625
 41
0.7314
 71
     6
 72
     5
  1
VOLTAGE
 73
     1
 44
1.0
1001
ACAD
1000
MTEXTBEGIN
1070
    73
1070
     1
1070
    44
1040
1.0
1070
    74
1070
     0
1000
MTEXTEND
  0
MTEXT
  5
2083
330
1E
100
AcDbEntity
  8
0
100
AcDbMText
 10
9.453704490607794
 20
7.744798918026546
 30
0.0
 40
0.0625
 41
0.7314
 71
     6
 72
     5
  1
VOLTAGE
 73
     1
 44
1.0
1001
ACAD
1000
MTEXTBEGIN
1070
    73
1070
     1
1070
    44
1040
1.0
1070
    74
1070
     0
1000
MTEXTEND
  0
MTEXT
  5
2084
330
1E
100
AcDbEntity
  8
0
100
AcDbMText
 10
9.453704490607794
 20
7.619798918026546
 30
0.0
 40
0.0625
 41
0.7314
 71
     6
 72
     5
  1
Hz
 73
     1
 44
1.0
1001
ACAD
1000
MTEXTBEGIN
1070
    73
1070
     1
1070
    44
1040
1.0
1070
    74
1070
     0
1000
MTEXTEND
  0
TEXT
  5
2085
330
1E
100
AcDbEntity
  8
0
100
AcDbText
 10
9.615373956451961
 20
7.588548918026544
 30
0.0
 40
0.0625
  1
60
100
AcDbText
  0
TEXT
  5
2086
330
1E
100
AcDbEntity
  8
0
100
AcDbText
 10
0.3584475610194371
 20
0.7298418607312263
 30
0.0
 40
0.0625
  1
REQUIRED CLEARANCES:
100
AcDbText
  0
TEXT
  5
2087
330
1E
100
AcDbEntity
  8
0
100
AcDbText
 10
0.4760786118267415
 20
0.5191964777346519
 30
0.0
 40
0.0625
  1
SIDES - 2"
100
AcDbText
  0
TEXT
  5
2088
330
1E
100
AcDbEntity
  8
0
100
AcDbText
 10
0.4760786118267415
 20
0.4222490148591751
 30
0.0
 40
0.0625
  1
FRONT - 12"
100
AcDbText
  0
TEXT
  5
2089
330
1E
100
AcDbEntity
  8
0
100
AcDbText
 10
0.4760786118267415
 20
0.6161439406101286
 30
0.0
 40
0.0625
  1
TOP - 6"
100
AcDbText
  0
MTEXT
  5
208A
330
1E
100
AcDbEntity
  8
0
100
AcDbMText
 10
5.846266052625395
 20
0.6794221488984596
 30
0.0
 40
0.0938
 41
2.801999999999999
 71
     5
 72
     5
  1
LV CABINET\P175VA WALL MOUNT\P{\H0.6663x;(NEMA TYPE 1)\PTOTAL WEIGHT: 55 lbs}
 73
     1
 44
1.0
1001
ACAD
1000
MTEXTBEGIN
1070
    73
1070
     1
1070
    44
1040
1.0
1070
    74
1070
     0
1000
MTEXTEND
  0
TEXT
  5
2422
330
1E
100
AcDbEntity
  8
0
100
AcDbText
 10
6.713325624671169
 20
4.521037146996877
 30
0.0
 40
0.0625
  1
RED ENCLOSURE
100
AcDbText
  0
TEXT
  5
2423
330
1E
100
AcDbEntity
  8
0
100
AcDbText
 10
6.716209255901576
 20
4.620984413141314
 30
0.0
 40
0.0625
  1
UL924 LISTED
100
AcDbText
  0
TEXT
  5
2424
330
1E
100
AcDbEntity
  8
0
100
AcDbText
 10
6.793345884052512
 20
1.614264488894121
 30
0.0
 40
0.0625
  1
UNIT WILL SUPPORT ALL LIGHTING LOADS INCLUDING H.I.D. (2ms TRANSFER)
100
AcDbText
  0
TEXT
  5
3224
330
1E
100
AcDbEntity
  8
0
100
AcDbText
 10
6.723010123082232
 20
4.097226047865488
 30
0.0
 40
0.0625
  1
G - GRID MOUNT
100
AcDbText
  0
INSERT
  5
3225
330
1E
100
AcDbEntity
  8
0
380
     2
100
AcDbBlockReference
  2
175GRID
 10
3.254873184927767
 20
3.039441332478855
 30
0.0
  0
TEXT
  5
3235
330
1E
100
AcDbEntity
  8
0
100
AcDbText
 10
3.241071447368398
 20
6.199999990937255
 30
0.0
 40
0.0625
  1
* NORMALLY OFF OUTPUT IS NOT AVAILABLE WHEN USING SWITCHED OUTPUT
100
AcDbText
  0
VIEWPORT
  5
4A1
330
49A
100
AcDbEntity
 67
     1
  8
0
380
     2
100
AcDbViewport
 10
5.375000360443835
 20
4.12500018209923
 30
0.0
 40
16.74904531991129
 41
8.993000381349579
 68
     1
 69
     1
 12
5.375000360443835
 22
4.12500018209923
 13
0.0
 23
0.0
 14
0.5
 24
0.5
 15
0.5
 25
0.5
 16
0.0
 26
0.0
 36
1.0
 17
0.0
 27
0.0
 37
0.0
 42
50.0
 43
0.0
 44
0.0
 45
8.993000381349579
 50
0.0
 51
0.0
 72
   100
 90
    32800
  1

281
     0
 71
     1
 74
     0
110
0.0
120
0.0
130
0.0
111
1.0
121
0.0
131
0.0
112
0.0
122
1.0
132
0.0
 79
     0
146
0.0
  0
ENDSEC
  0
SECTION
  2
OBJECTS
  0
DICTIONARY
  5
C
330
0
100
AcDbDictionary
281
     1
  3
ACAD_GROUP
350
D
  3
ACAD_LAYOUT
350
19
  3
ACAD_MLINESTYLE
350
16
  3
ACAD_PLOTSETTINGS
350
18
  3
ACAD_PLOTSTYLENAME
350
E
  3
AcDbVariableDictionary
350
E8F
  0
DICTIONARY
  5
62F
330
2
100
AcDbDictionary
280
     1
281
     1
  3
ACAD_LAYERFILTERS
360
630
  0
DICTIONARY
  5
706
330
705
100
AcDbDictionary
280
     1
281
     1
  3
ADSK_XREC_LAYER_RECONCILED
360
707
  0
DICTIONARY
  5
709
330
708
100
AcDbDictionary
280
     1
281
     1
  3
ADSK_XREC_LAYER_RECONCILED
360
70A
  0
DICTIONARY
  5
16BD
330
16BC
100
AcDbDictionary
280
     1
281
     1
  3
ADSK_XREC_LAYER_RECONCILED
360
16BE
  0
DICTIONARY
  5
D
102
{ACAD_REACTORS
330
C
102
}
330
C
100
AcDbDictionary
281
     1
  0
DICTIONARY
  5
19
102
{ACAD_REACTORS
330
C
102
}
330
C
100
AcDbDictionary
281
     1
  3
Layout1
350
49B
  3
Model
350
21
  0
DICTIONARY
  5
16
102
{ACAD_REACTORS
330
C
102
}
330
C
100
AcDbDictionary
281
     1
  3
Standard
350
17
  0
DICTIONARY
  5
18
102
{ACAD_REACTORS
330
C
102
}
330
C
100
AcDbDictionary
281
     1
  0
ACDBDICTIONARYWDFLT
  5
E
102
{ACAD_REACTORS
330
C
102
}
330
C
100
AcDbDictionary
281
     1
  3
Normal
350
F
100
AcDbDictionaryWithDefault
340
F
  0
DICTIONARY
  5
E8F
102
{ACAD_REACTORS
330
C
102
}
330
C
100
AcDbDictionary
281
     1
  3
DIMASSOC
350
E90
  0
DICTIONARY
  5
630
102
{ACAD_REACTORS
330
62F
102
}
330
62F
100
AcDbDictionary
280
     1
281
     1
  3
$0$
360
631
  3
1
360
632
  3
12
360
633
  3
130
360
634
  3
147
360
635
  3
2
360
636
  3
214
360
637
  3
251
360
638
  3
253
360
639
  3
40
360
63A
  3
9
360
63B
  3
96
360
63C
  3
A
360
63D
  3
a-
360
63E
  3
ANELLO
360
63F
  3
ARANCIO
360
640
  3
AREAhatches
360
641
  3
ASDF
360
642
  3
ASSI
360
643
  3
bem
360
644
  3
BIANCO
360
645
  3
bliglietterie_automatiche
360
646
  3
BLK
360
647
  3
box
360
648
  3
BP
360
649
  3
BUB
360
64A
  3
C
360
64B
  3
C0112
360
64C
  3
c_
360
64D
  3
Calques axes
360
64E
  3
Calques caches
360
64F
  3
Calques forts
360
650
  3
camp
360
651
  3
CARTA
360
652
  3
CASE
360
653
  3
CD
360
654
  3
CDFF
360
655
  3
ce
360
656
  3
chframe
360
657
  3
COL
360
658
  3
color
360
659
  3
colori
360
65A
  3
contour
360
65B
  3
CYAN
360
65C
  3
D
360
65D
  3
de
360
65E
  3
DEFPOINTS
360
65F
  3
DEMO
360
660
  3
dim
360
661
  3
DIMS
360
662
  3
DR
360
663
  3
DRAN
360
664
  3
DUN
360
665
  3
E-layers
360
666
  3
ECW
360
667
  3
elec
360
668
  3
ETK
360
669
  3
excon master$0$
360
66A
  3
exist
360
66B
  3
EXIST CONTOURS
360
66C
  3
F
360
66D
  3
FENETRE ACTIF
360
66E
  3
FGT
360
66F
  3
fil1
360
670
  3
fior
360
671
  3
fiorier
360
672
  3
fiorire
360
673
  3
first
360
674
  3
FIX
360
675
  3
FLOOR FIN
360
676
  3
fndn
360
677
  3
FOOTPRINT
360
678
  3
FR-L
360
679
  3
freccia
360
67A
  3
freccie
360
67B
  3
froz
360
67C
  3
frozen
360
67D
  3
FRZ
360
67E
  3
GEE
360
67F
  3
GIALLO
360
680
  3
GOOKIN 01970 BASE
360
681
  3
grid
360
682
  3
Grossa
360
683
  3
grosse
360
684
  3
HATCH
360
685
  3
HATCHED
360
686
  3
herrajes
360
687
  3
HORIZARALBL
360
688
  3
HTC
360
689
  3
HTCH
360
68A
  3
INC
360
68B
  3
intervento
360
68C
  3
JUNK
360
68D
  3
JustOn
360
68E
  3
KIM
360
68F
  3
L
360
690
  3
layer_sc_
360
691
  3
lbl
360
692
  3
LIBERE
360
693
  3
LINEE-TRAT
360
694
  3
lll
360
695
  3
LOCKED
360
696
  3
M-
360
697
  3
m53
360
698
  3
MAGENTA
360
699
  3
marc
360
69A
  3
mauro1
360
69B
  3
mech
360
69C
  3
MILL
360
69D
  3
mine
360
69E
  3
mq
360
69F
  3
N
360
6A0
  3
NASCOSTO
360
6A1
  3
OFF
360
6A2
  3
ombre
360
6A3
  3
ON
360
6A4
  3
OXY-VERDE
360
6A5
  3
P
360
6A6
  3
P-LAYERS
360
6A7
  3
P-WALLS
360
6A8
  3
P48
360
6A9
  3
P96
360
6AA
  3
PAPER
360
6AB
  3
parcheggio
360
6AC
  3
pav
360
6AD
  3
PEGC
360
6AE
  3
PEGCT
360
6AF
  3
PGRIDT
360
6B0
  3
PIPE
360
6B1
  3
PIT
360
6B2
  3
PL
360
6B3
  3
plan
360
6B4
  3
PLATFM
360
6B5
  3
PLMG
360
6B6
  3
PLUMB
360
6B7
  3
PPIPE
360
6B8
  3
primo
360
6B9
  3
PRISR
360
6BA
  3
proiez
360
6BB
  3
RAIL
360
6BC
  3
RCP
360
6BD
  3
rd
360
6BE
  3
RED
360
6BF
  3
RISR
360
6C0
  3
roof
360
6C1
  3
ROSSO
360
6C2
  3
ROTAIA
360
6C3
  3
RR_SWITCH
360
6C4
  3
sc
360
6C5
  3
scalehidden
360
6C6
  3
SH
360
6C7
  3
Sottile
360
6C8
  3
sottili
360
6C9
  3
SPENTI
360
6CA
  3
STAPTS
360
6CB
  3
strade
360
6CC
  3
struct
360
6CD
  3
SUR
360
6CE
  3
temp
360
6CF
  3
test
360
6D0
  3
testi
360
6D1
  3
transito
360
6D2
  3
tratt
360
6D3
  3
trattegg
360
6D4
  3
tratteggiate
360
6D5
  3
TRATTEGGIO
360
6D6
  3
Tratti
360
6D7
  3
TWO
360
6D8
  3
TX
360
6D9
  3
TXT
360
6DA
  3
U-POLE
360
6DB
  3
UL
360
6DC
  3
upole
360
6DD
  3
V
360
6DE
  3
vetrate
360
6DF
  3
WALL
360
6E0
  3
WALLS
360
6E1
  3
WIN
360
6E2
  3
X
360
6E3
  3
XESITE
360
6E4
  3
XREF
360
6E5
  3
XS
360
6E6
  3
xsect
360
6E7
  3
Y
360
6E8
  3
Z
360
6E9
  0
XRECORD
  5
707
102
{ACAD_REACTORS
330
706
102
}
330
706
100
AcDbXrecord
280
     1
290
     1
  0
XRECORD
  5
70A
102
{ACAD_REACTORS
330
709
102
}
330
709
100
AcDbXrecord
280
     1
290
     1
  0
XRECORD
  5
16BE
102
{ACAD_REACTORS
330
16BD
102
}
330
16BD
100
AcDbXrecord
280
     1
290
     1
  0
LAYOUT
  5
49B
102
{ACAD_REACTORS
330
19
102
}
330
19
100
AcDbPlotSettings
  1

  2
C:\Program Files\AutoCAD LT 2000i\plotters\Kyocera KM-5050 KX.pc3
  4
User256
  6

 40
3.174999952316284
 41
3.174999952316284
 42
3.175003051757812
 43
3.17498779296875
 44
215.9000091552734
 45
279.3999938964843
 46
0.0
 47
0.0
 48
0.0
 49
0.0
140
0.0
141
0.0
142
1.0
143
1.0
 70
   688
 72
     0
 73
     1
 74
     5
  7
monochrome.stb
 75
    16
147
1.0
148
0.0
149
0.0
100
AcDbLayout
  1
Layout1
 70
     1
 71
     1
 10
-0.1249995194082185
 20
-0.1249999981226883
 11
10.87500024029589
 21
8.375000362321149
 12
0.0
 22
0.0
 32
0.0
 14
1.000000000000000E+20
 24
1.000000000000000E+20
 34
1.000000000000000E+20
 15
-1.000000000000000E+20
 25
-1.000000000000000E+20
 35
-1.000000000000000E+20
146
0.0
 13
0.0
 23
0.0
 33
0.0
 16
1.0
 26
0.0
 36
0.0
 17
0.0
 27
1.0
 37
0.0
 76
     0
330
49A
331
4A1
  0
LAYOUT
  5
21
102
{ACAD_REACTORS
330
19
102
}
330
19
100
AcDbPlotSettings
  1

  2
\\pamacola\SHARP MX-M565N PCL6
  4
Letter
  6
OLE1
 40
5.027083396911621
 41
5.027085304260253
 42
5.027084350585937
 43
5.027069091796875
 44
215.8999938964843
 45
279.3999938964843
 46
1.016
 47
1.016
 48
0.1511024287160865
 49
0.2206658756119388
140
10.81453952602389
141
8.330653690245537
142
1.0
143
1.0
 70
 11956
 72
     0
 73
     1
 74
     1
  7
monochrome.stb
 75
    16
147
1.0
148
-6.088001145897523
149
-6.088000998049974
100
AcDbLayout
  1
Model
 70
     1
 71
     0
 10
0.0
 20
0.0
 11
12.0
 21
9.0
 12
0.0
 22
0.0
 32
0.0
 14
0.0
 24
0.0
 34
0.0
 15
0.0
 25
0.0
 35
0.0
146
0.0
 13
0.0
 23
0.0
 33
0.0
 16
1.0
 26
0.0
 36
0.0
 17
0.0
 27
1.0
 37
0.0
 76
     0
330
1E
  0
MLINESTYLE
  5
17
102
{ACAD_REACTORS
330
16
102
}
330
16
100
AcDbMlineStyle
  2
STANDARD
 70
     0
  3

 62
   256
 51
90.0
 52
90.0
 71
     2
 49
0.5
 62
   256
  6
BYLAYER
 49
-0.5
 62
   256
  6
BYLAYER
  0
ACDBPLACEHOLDER
  5
F
102
{ACAD_REACTORS
330
E
102
}
330
E
  0
DICTIONARYVAR
  5
E90
102
{ACAD_REACTORS
330
E8F
102
}
330
E8F
100
DictionaryVariables
280
     0
  1
1
  0
XRECORD
  5
631
102
{ACAD_REACTORS
330
630
102
}
330
630
100
AcDbXrecord
280
     1
  1
$0$
  1
*$0$*
  1
*
  1
*
 70
     0
  1
*
  1
*
  0
XRECORD
  5
632
102
{ACAD_REACTORS
330
630
102
}
330
630
100
AcDbXrecord
280
     1
  1
1
  1
*
  1
*
  1
CENTER2
 70
     0
  1
*
  1
*
  0
XRECORD
  5
633
102
{ACAD_REACTORS
330
630
102
}
330
630
100
AcDbXrecord
280
     1
  1
12
  1
M*
  1
12
  1
*
 70
     0
  1
*
  1
*
  0
XRECORD
  5
634
102
{ACAD_REACTORS
330
630
102
}
330
630
100
AcDbXrecord
280
     1
  1
130
  1
*130*
  1
*
  1
*
 70
     0
  1
*
  1
*
  0
XRECORD
  5
635
102
{ACAD_REACTORS
330
630
102
}
330
630
100
AcDbXrecord
280
     1
  1
147
  1
147
  1
*
  1
*
 70
     0
  1
*
  1
*
  0
XRECORD
  5
636
102
{ACAD_REACTORS
330
630
102
}
330
630
100
AcDbXrecord
280
     1
  1
2
  1
2|*
  1
*
  1
*
 70
     0
  1
*
  1
*
  0
XRECORD
  5
637
102
{ACAD_REACTORS
330
630
102
}
330
630
100
AcDbXrecord
280
     1
  1
214
  1
*
  1
*214*
  1
*
 70
    13
  1
*
  1
*
  0
XRECORD
  5
638
102
{ACAD_REACTORS
330
630
102
}
330
630
100
AcDbXrecord
280
     1
  1
251
  1
*
  1
251
  1
*
 70
     0
  1
*
  1
*
  0
XRECORD
  5
639
102
{ACAD_REACTORS
330
630
102
}
330
630
100
AcDbXrecord
280
     1
  1
253
  1
*
  1
*253*
  1
*
 70
     0
  1
*
  1
*
  0
XRECORD
  5
63A
102
{ACAD_REACTORS
330
630
102
}
330
630
100
AcDbXrecord
280
     1
  1
40
  1
*
  1
*
  1
*
 70
     0
  1
0.40 mm
  1
*
  0
XRECORD
  5
63B
102
{ACAD_REACTORS
330
630
102
}
330
630
100
AcDbXrecord
280
     1
  1
9
  1
*
  1
9
  1
*
 70
     0
  1
*
  1
*
  0
XRECORD
  5
63C
102
{ACAD_REACTORS
330
630
102
}
330
630
100
AcDbXrecord
280
     1
  1
96
  1
*
  1
*
  1
*
 70
     0
  1
*
  1
*
  0
XRECORD
  5
63D
102
{ACAD_REACTORS
330
630
102
}
330
630
100
AcDbXrecord
280
     1
  1
A
  1
*IDEN*
  1
*
  1
*
 70
     0
  1
*
  1
*
  0
XRECORD
  5
63E
102
{ACAD_REACTORS
330
630
102
}
330
630
100
AcDbXrecord
280
     1
  1
a-
  1
a-*
  1
*
  1
*
 70
     0
  1
*
  1
*
  0
XRECORD
  5
63F
102
{ACAD_REACTORS
330
630
102
}
330
630
100
AcDbXrecord
280
     1
  1
ANELLO
  1
*
  1
*
  1
*
 70
     0
  1
*
  1
*
  0
XRECORD
  5
640
102
{ACAD_REACTORS
330
630
102
}
330
630
100
AcDbXrecord
280
     1
  1
ARANCIO
  1
*
  1
*30
  1
*
 70
     0
  1
*
  1
*
  0
XRECORD
  5
641
102
{ACAD_REACTORS
330
630
102
}
330
630
100
AcDbXrecord
280
     1
  1
AREAhatches
  1
a^ *
  1
*
  1
*
 70
     0
  1
*
  1
*
  0
XRECORD
  5
642
102
{ACAD_REACTORS
330
630
102
}
330
630
100
AcDbXrecord
280
     1
  1
ASDF
  1
*IDEN*
  1
*
  1
*
 70
     0
  1
*
  1
*
  0
XRECORD
  5
643
102
{ACAD_REACTORS
330
630
102
}
330
630
100
AcDbXrecord
280
     1
  1
ASSI
  1
*
  1
*
  1
*
 70
     0
  1
*
  1
*
  0
XRECORD
  5
644
102
{ACAD_REACTORS
330
630
102
}
330
630
100
AcDbXrecord
280
     1
  1
bem
  1
*bem*
  1
*
  1
*
 70
     0
  1
*
  1
*
  0
XRECORD
  5
645
102
{ACAD_REACTORS
330
630
102
}
330
630
100
AcDbXrecord
280
     1
  1
BIANCO
  1
*
  1
*7
  1
*
 70
     0
  1
*
  1
*
  0
XRECORD
  5
646
102
{ACAD_REACTORS
330
630
102
}
330
630
100
AcDbXrecord
280
     1
  1
bliglietterie_automatiche
  1
*bigl*
  1
*
  1
*
 70
     0
  1
*
  1
*
  0
XRECORD
  5
647
102
{ACAD_REACTORS
330
630
102
}
330
630
100
AcDbXrecord
280
     1
  1
BLK
  1
*B*
  1
*
  1
*
 70
     0
  1
*
  1
*
  0
XRECORD
  5
648
102
{ACAD_REACTORS
330
630
102
}
330
630
100
AcDbXrecord
280
     1
  1
box
  1
*box*
  1
*
  1
*
 70
     0
  1
*
  1
*
  0
XRECORD
  5
649
102
{ACAD_REACTORS
330
630
102
}
330
630
100
AcDbXrecord
280
     1
  1
BP
  1
*BP*
  1
*
  1
*
 70
     0
  1
*
  1
*
  0
XRECORD
  5
64A
102
{ACAD_REACTORS
330
630
102
}
330
630
100
AcDbXrecord
280
     1
  1
BUB
  1
*GRID*
  1
*
  1
*
 70
     0
  1
*
  1
*
  0
XRECORD
  5
64B
102
{ACAD_REACTORS
330
630
102
}
330
630
100
AcDbXrecord
280
     1
  1
C
  1
*CATCH*
  1
*
  1
*
 70
     0
  1
*
  1
*
  0
XRECORD
  5
64C
102
{ACAD_REACTORS
330
630
102
}
330
630
100
AcDbXrecord
280
     1
  1
C0112
  1
C0112*
  1
*
  1
*
 70
     0
  1
*
  1
*
  0
XRECORD
  5
64D
102
{ACAD_REACTORS
330
630
102
}
330
630
100
AcDbXrecord
280
     1
  1
c_
  1
c_*
  1
*
  1
*
 70
     0
  1
*
  1
*
  0
XRECORD
  5
64E
102
{ACAD_REACTORS
330
630
102
}
330
630
100
AcDbXrecord
280
     1
  1
Calques axes
  1
*axes
  1
*
  1
*
 70
     0
  1
*
  1
*
  0
XRECORD
  5
64F
102
{ACAD_REACTORS
330
630
102
}
330
630
100
AcDbXrecord
280
     1
  1
Calques caches
  1
*caches
  1
*
  1
*
 70
     0
  1
*
  1
*
  0
XRECORD
  5
650
102
{ACAD_REACTORS
330
630
102
}
330
630
100
AcDbXrecord
280
     1
  1
Calques forts
  1
*forts
  1
*
  1
*
 70
     0
  1
*
  1
*
  0
XRECORD
  5
651
102
{ACAD_REACTORS
330
630
102
}
330
630
100
AcDbXrecord
280
     1
  1
camp
  1
*camp*
  1
*
  1
*
 70
     0
  1
*
  1
*
  0
XRECORD
  5
652
102
{ACAD_REACTORS
330
630
102
}
330
630
100
AcDbXrecord
280
     1
  1
CARTA
  1
*
  1
*
  1
*
 70
     0
  1
*
  1
*
  0
XRECORD
  5
653
102
{ACAD_REACTORS
330
630
102
}
330
630
100
AcDbXrecord
280
     1
  1
CASE
  1
*CASE*
  1
*
  1
*
 70
     0
  1
*
  1
*
  0
XRECORD
  5
654
102
{ACAD_REACTORS
330
630
102
}
330
630
100
AcDbXrecord
280
     1
  1
CD
  1
*CDFF*
  1
*
  1
*
 70
     0
  1
*
  1
*
  0
XRECORD
  5
655
102
{ACAD_REACTORS
330
630
102
}
330
630
100
AcDbXrecord
280
     1
  1
CDFF
  1
*CD*
  1
*
  1
*
 70
     0
  1
*
  1
*
  0
XRECORD
  5
656
102
{ACAD_REACTORS
330
630
102
}
330
630
100
AcDbXrecord
280
     1
  1
ce
  1
*ce*
  1
*
  1
*
 70
     0
  1
*
  1
*
  0
XRECORD
  5
657
102
{ACAD_REACTORS
330
630
102
}
330
630
100
AcDbXrecord
280
     1
  1
chframe
  1
*chframe*
  1
*
  1
*
 70
     0
  1
*
  1
*
  0
XRECORD
  5
658
102
{ACAD_REACTORS
330
630
102
}
330
630
100
AcDbXrecord
280
     1
  1
COL
  1
*COL *
  1
*
  1
*
 70
     0
  1
*
  1
*
  0
XRECORD
  5
659
102
{ACAD_REACTORS
330
630
102
}
330
630
100
AcDbXrecord
280
     1
  1
color
  1
*
  1
*
  1
*
 70
     0
  1
*
  1
*
  0
XRECORD
  5
65A
102
{ACAD_REACTORS
330
630
102
}
330
630
100
AcDbXrecord
280
     1
  1
colori
  1
*col*
  1
*
  1
*
 70
     0
  1
*
  1
*
  0
XRECORD
  5
65B
102
{ACAD_REACTORS
330
630
102
}
330
630
100
AcDbXrecord
280
     1
  1
contour
  1
*conto*
  1
*
  1
*
 70
     0
  1
*
  1
*
  0
XRECORD
  5
65C
102
{ACAD_REACTORS
330
630
102
}
330
630
100
AcDbXrecord
280
     1
  1
CYAN
  1
*
  1
*4
  1
*
 70
     0
  1
*
  1
*
  0
XRECORD
  5
65D
102
{ACAD_REACTORS
330
630
102
}
330
630
100
AcDbXrecord
280
     1
  1
D
  1
*DEP*
  1
*
  1
*
 70
     0
  1
*
  1
*
  0
XRECORD
  5
65E
102
{ACAD_REACTORS
330
630
102
}
330
630
100
AcDbXrecord
280
     1
  1
de
  1
d*
  1
*
  1
*
 70
     3
  1
*
  1
*
  0
XRECORD
  5
65F
102
{ACAD_REACTORS
330
630
102
}
330
630
100
AcDbXrecord
280
     1
  1
DEFPOINTS
  1
*DEFPOINTS
  1
*
  1
*
 70
     0
  1
*
  1
*
  0
XRECORD
  5
660
102
{ACAD_REACTORS
330
630
102
}
330
630
100
AcDbXrecord
280
     1
  1
DEMO
  1
*DEMO
  1
*
  1
*
 70
     0
  1
*
  1
*
  0
XRECORD
  5
661
102
{ACAD_REACTORS
330
630
102
}
330
630
100
AcDbXrecord
280
     1
  1
dim
  1
*dim*
  1
*
  1
*
 70
     0
  1
*
  1
*
  0
XRECORD
  5
662
102
{ACAD_REACTORS
330
630
102
}
330
630
100
AcDbXrecord
280
     1
  1
DIMS
  1
*DIMS*
  1
*
  1
*
 70
     0
  1
*
  1
*
  0
XRECORD
  5
663
102
{ACAD_REACTORS
330
630
102
}
330
630
100
AcDbXrecord
280
     1
  1
DR
  1
*DOOR*
  1
*
  1
*
 70
     0
  1
*
  1
*
  0
XRECORD
  5
664
102
{ACAD_REACTORS
330
630
102
}
330
630
100
AcDbXrecord
280
     1
  1
DRAN
  1
*DRAIN*
  1
*
  1
*
 70
     0
  1
*
  1
*
  0
XRECORD
  5
665
102
{ACAD_REACTORS
330
630
102
}
330
630
100
AcDbXrecord
280
     1
  1
DUN
  1
*-X-*,*-S-*,BO*
  1
*
  1
*
 70
     0
  1
*
  1
*
  0
XRECORD
  5
666
102
{ACAD_REACTORS
330
630
102
}
330
630
100
AcDbXrecord
280
     1
  1
E-layers
  1
e-*
  1
*
  1
*
 70
     0
  1
*
  1
*
  0
XRECORD
  5
667
102
{ACAD_REACTORS
330
630
102
}
330
630
100
AcDbXrecord
280
     1
  1
ECW
  1
E|*
  1
*
  1
*
 70
     0
  1
*
  1
*
  0
XRECORD
  5
668
102
{ACAD_REACTORS
330
630
102
}
330
630
100
AcDbXrecord
280
     1
  1
elec
  1
e*
  1
*
  1
*
 70
     0
  1
*
  1
*
  0
XRECORD
  5
669
102
{ACAD_REACTORS
330
630
102
}
330
630
100
AcDbXrecord
280
     1
  1
ETK
  1
etk*
  1
*
  1
*
 70
     0
  1
*
  1
*
  0
XRECORD
  5
66A
102
{ACAD_REACTORS
330
630
102
}
330
630
100
AcDbXrecord
280
     1
  1
excon master$0$
  1
excon master$0$*
  1
*
  1
*
 70
     0
  1
*
  1
*
  0
XRECORD
  5
66B
102
{ACAD_REACTORS
330
630
102
}
330
630
100
AcDbXrecord
280
     1
  1
exist
  1
ex*
  1
*
  1
*
 70
     0
  1
*
  1
*
  0
XRECORD
  5
66C
102
{ACAD_REACTORS
330
630
102
}
330
630
100
AcDbXrecord
280
     1
  1
EXIST CONTOURS
  1
EXIST*
  1
*
  1
*
 70
     0
  1
*
  1
*
  0
XRECORD
  5
66D
102
{ACAD_REACTORS
330
630
102
}
330
630
100
AcDbXrecord
280
     1
  1
F
  1
F-*
  1
*
  1
*
 70
     0
  1
*
  1
*
  0
XRECORD
  5
66E
102
{ACAD_REACTORS
330
630
102
}
330
630
100
AcDbXrecord
280
     1
  1
FENETRE ACTIF
  1
*
  1
*
  1
*
 70
    48
  1
*
  1
*
  0
XRECORD
  5
66F
102
{ACAD_REACTORS
330
630
102
}
330
630
100
AcDbXrecord
280
     1
  1
FGT
  1
*FGCT
  1
*
  1
*
 70
     0
  1
*
  1
*
  0
XRECORD
  5
670
102
{ACAD_REACTORS
330
630
102
}
330
630
100
AcDbXrecord
280
     1
  1
fil1
  1
*
  1
*
  1
*
 70
     0
  1
*
  1
*
  0
XRECORD
  5
671
102
{ACAD_REACTORS
330
630
102
}
330
630
100
AcDbXrecord
280
     1
  1
fior
  1
*fiorie*
  1
*
  1
*
 70
     0
  1
*
  1
*
  0
XRECORD
  5
672
102
{ACAD_REACTORS
330
630
102
}
330
630
100
AcDbXrecord
280
     1
  1
fiorier
  1
*
  1
*
  1
*
 70
     0
  1
*
  1
*
  0
XRECORD
  5
673
102
{ACAD_REACTORS
330
630
102
}
330
630
100
AcDbXrecord
280
     1
  1
fiorire
  1
*fiorr*
  1
*
  1
*
 70
     0
  1
*
  1
*
  0
XRECORD
  5
674
102
{ACAD_REACTORS
330
630
102
}
330
630
100
AcDbXrecord
280
     1
  1
first
  1
s-1st*,0,a100|arch
  1
*
  1
*
 70
     0
  1
*
  1
*
  0
XRECORD
  5
675
102
{ACAD_REACTORS
330
630
102
}
330
630
100
AcDbXrecord
280
     1
  1
FIX
  1
*FIXT*
  1
*
  1
*
 70
     0
  1
*
  1
*
  0
XRECORD
  5
676
102
{ACAD_REACTORS
330
630
102
}
330
630
100
AcDbXrecord
280
     1
  1
FLOOR FIN
  1
*
  1
*
  1
*
 70
    13
  1
*
  1
*
  0
XRECORD
  5
677
102
{ACAD_REACTORS
330
630
102
}
330
630
100
AcDbXrecord
280
     1
  1
fndn
  1
s-fndn*,0,a100|a*
  1
*
  1
*
 70
     0
  1
*
  1
*
  0
XRECORD
  5
678
102
{ACAD_REACTORS
330
630
102
}
330
630
100
AcDbXrecord
280
     1
  1
FOOTPRINT
  1
*
  1
*
  1
*
 70
     0
  1
*
  1
*
  0
XRECORD
  5
679
102
{ACAD_REACTORS
330
630
102
}
330
630
100
AcDbXrecord
280
     1
  1
FR-L
  1
*
  1
*
  1
*
 70
   260
  1
*
  1
*
  0
XRECORD
  5
67A
102
{ACAD_REACTORS
330
630
102
}
330
630
100
AcDbXrecord
280
     1
  1
freccia
  1
*freccia*
  1
*
  1
*
 70
     0
  1
*
  1
*
  0
XRECORD
  5
67B
102
{ACAD_REACTORS
330
630
102
}
330
630
100
AcDbXrecord
280
     1
  1
freccie
  1
*frecc*
  1
*
  1
*
 70
     0
  1
*
  1
*
  0
XRECORD
  5
67C
102
{ACAD_REACTORS
330
630
102
}
330
630
100
AcDbXrecord
280
     1
  1
froz
  1
*
  1
*
  1
*
 70
     0
  1
*
  1
*
  0
XRECORD
  5
67D
102
{ACAD_REACTORS
330
630
102
}
330
630
100
AcDbXrecord
280
     1
  1
frozen
  1
*
  1
*
  1
*
 70
     4
  1
*
  1
*
  0
XRECORD
  5
67E
102
{ACAD_REACTORS
330
630
102
}
330
630
100
AcDbXrecord
280
     1
  1
FRZ
  1
*
  1
*
  1
*
 70
    16
  1
*
  1
*
  0
XRECORD
  5
67F
102
{ACAD_REACTORS
330
630
102
}
330
630
100
AcDbXrecord
280
     1
  1
GEE
  1
G|*
  1
*
  1
*
 70
     0
  1
*
  1
*
  0
XRECORD
  5
680
102
{ACAD_REACTORS
330
630
102
}
330
630
100
AcDbXrecord
280
     1
  1
GIALLO
  1
*
  1
*2
  1
*
 70
     0
  1
*
  1
*
  0
XRECORD
  5
681
102
{ACAD_REACTORS
330
630
102
}
330
630
100
AcDbXrecord
280
     1
  1
GOOKIN 01970 BASE
  1
*01970-ADJ|G_
  1
*
  1
*
 70
    13
  1
*
  1
*
  0
XRECORD
  5
682
102
{ACAD_REACTORS
330
630
102
}
330
630
100
AcDbXrecord
280
     1
  1
grid
  1
*a-grid
  1
*
  1
*
 70
     0
  1
*
  1
*
  0
XRECORD
  5
683
102
{ACAD_REACTORS
330
630
102
}
330
630
100
AcDbXrecord
280
     1
  1
Grossa
  1
* Grossa
  1
*
  1
*
 70
     0
  1
*
  1
*
  0
XRECORD
  5
684
102
{ACAD_REACTORS
330
630
102
}
330
630
100
AcDbXrecord
280
     1
  1
grosse
  1
*g
  1
*
  1
*
 70
     0
  1
*
  1
*
  0
XRECORD
  5
685
102
{ACAD_REACTORS
330
630
102
}
330
630
100
AcDbXrecord
280
     1
  1
HATCH
  1
*H*
  1
*
  1
*
 70
     0
  1
*
  1
*
  0
XRECORD
  5
686
102
{ACAD_REACTORS
330
630
102
}
330
630
100
AcDbXrecord
280
     1
  1
HATCHED
  1
*
  1
*
  1
*
 70
     0
  1
*
  1
*
  0
XRECORD
  5
687
102
{ACAD_REACTORS
330
630
102
}
330
630
100
AcDbXrecord
280
     1
  1
herrajes
  1
*
  1
*
  1
*
 70
    87
  1
*
  1
*
  0
XRECORD
  5
688
102
{ACAD_REACTORS
330
630
102
}
330
630
100
AcDbXrecord
280
     1
  1
HORIZARALBL
  1
*HORIZARALBL
  1
*
  1
*
 70
     0
  1
*
  1
*
  0
XRECORD
  5
689
102
{ACAD_REACTORS
330
630
102
}
330
630
100
AcDbXrecord
280
     1
  1
HTC
  1
*HATCH*
  1
*
  1
*
 70
     0
  1
*
  1
*
  0
XRECORD
  5
68A
102
{ACAD_REACTORS
330
630
102
}
330
630
100
AcDbXrecord
280
     1
  1
HTCH
  1
*-H*
  1
*
  1
*
 70
     0
  1
*
  1
*
  0
XRECORD
  5
68B
102
{ACAD_REACTORS
330
630
102
}
330
630
100
AcDbXrecord
280
     1
  1
INC
  1
*INC*
  1
*
  1
*
 70
     0
  1
*
  1
*
  0
XRECORD
  5
68C
102
{ACAD_REACTORS
330
630
102
}
330
630
100
AcDbXrecord
280
     1
  1
intervento
  1
*inter*
  1
*
  1
*
 70
     0
  1
*
  1
*
  0
XRECORD
  5
68D
102
{ACAD_REACTORS
330
630
102
}
330
630
100
AcDbXrecord
280
     1
  1
JUNK
  1
JUNK*
  1
*
  1
*
 70
     0
  1
*
  1
*
  0
XRECORD
  5
68E
102
{ACAD_REACTORS
330
630
102
}
330
630
100
AcDbXrecord
280
     1
  1
JustOn
  1
*
  1
*
  1
*
 70
     1
  1
*
  1
*
  0
XRECORD
  5
68F
102
{ACAD_REACTORS
330
630
102
}
330
630
100
AcDbXrecord
280
     1
  1
KIM
  1
*
  1
*
  1
*
 70
     0
  1
*
  1
*
  0
XRECORD
  5
690
102
{ACAD_REACTORS
330
630
102
}
330
630
100
AcDbXrecord
280
     1
  1
L
  1
*
  1
*
  1
*
 70
     0
  1
*
  1
*
  0
XRECORD
  5
691
102
{ACAD_REACTORS
330
630
102
}
330
630
100
AcDbXrecord
280
     1
  1
layer_sc_
  1
*sc*
  1
*
  1
*
 70
     0
  1
*
  1
*
  0
XRECORD
  5
692
102
{ACAD_REACTORS
330
630
102
}
330
630
100
AcDbXrecord
280
     1
  1
lbl
  1
*stalbl
  1
*
  1
*
 70
     0
  1
*
  1
*
  0
XRECORD
  5
693
102
{ACAD_REACTORS
330
630
102
}
330
630
100
AcDbXrecord
280
     1
  1
LIBERE
  1
*
  1
*
  1
*
 70
    12
  1
*
  1
*
  0
XRECORD
  5
694
102
{ACAD_REACTORS
330
630
102
}
330
630
100
AcDbXrecord
280
     1
  1
LINEE-TRAT
  1
*
  1
*
  1
*
 70
     0
  1
*
  1
*
  0
XRECORD
  5
695
102
{ACAD_REACTORS
330
630
102
}
330
630
100
AcDbXrecord
280
     1
  1
lll
  1
l-*
  1
*
  1
*
 70
     0
  1
*
  1
*
  0
XRECORD
  5
696
102
{ACAD_REACTORS
330
630
102
}
330
630
100
AcDbXrecord
280
     1
  1
LOCKED
  1
*
  1
*
  1
*
 70
   256
  1
*
  1
*
  0
XRECORD
  5
697
102
{ACAD_REACTORS
330
630
102
}
330
630
100
AcDbXrecord
280
     1
  1
M-
  1
M*
  1
*
  1
*
 70
     0
  1
*
  1
*
  0
XRECORD
  5
698
102
{ACAD_REACTORS
330
630
102
}
330
630
100
AcDbXrecord
280
     1
  1
m53
  1
*m53*
  1
*
  1
*
 70
     0
  1
*
  1
*
  0
XRECORD
  5
699
102
{ACAD_REACTORS
330
630
102
}
330
630
100
AcDbXrecord
280
     1
  1
MAGENTA
  1
*
  1
*6
  1
*
 70
     0
  1
*
  1
*
  0
XRECORD
  5
69A
102
{ACAD_REACTORS
330
630
102
}
330
630
100
AcDbXrecord
280
     1
  1
marc
  1
*marc*
  1
*
  1
*
 70
     0
  1
*
  1
*
  0
XRECORD
  5
69B
102
{ACAD_REACTORS
330
630
102
}
330
630
100
AcDbXrecord
280
     1
  1
mauro1
  1
*
  1
*
  1
*
 70
     0
  1
*
  1
*
  0
XRECORD
  5
69C
102
{ACAD_REACTORS
330
630
102
}
330
630
100
AcDbXrecord
280
     1
  1
mech
  1
*m-hvac*
  1
*
  1
*
 70
     0
  1
*
  1
*
  0
XRECORD
  5
69D
102
{ACAD_REACTORS
330
630
102
}
330
630
100
AcDbXrecord
280
     1
  1
MILL
  1
*
  1
*
  1
*
 70
     0
  1
*
  1
*
  0
XRECORD
  5
69E
102
{ACAD_REACTORS
330
630
102
}
330
630
100
AcDbXrecord
280
     1
  1
mine
  1
0*
  1
*
  1
*
 70
     0
  1
*
  1
*
  0
XRECORD
  5
69F
102
{ACAD_REACTORS
330
630
102
}
330
630
100
AcDbXrecord
280
     1
  1
mq
  1
*mq*
  1
*
  1
*
 70
     0
  1
*
  1
*
  0
XRECORD
  5
6A0
102
{ACAD_REACTORS
330
630
102
}
330
630
100
AcDbXrecord
280
     1
  1
N
  1
*NARI*
  1
*
  1
*
 70
     0
  1
*
  1
*
  0
XRECORD
  5
6A1
102
{ACAD_REACTORS
330
630
102
}
330
630
100
AcDbXrecord
280
     1
  1
NASCOSTO
  1
*
  1
*
  1
*
 70
     0
  1
*
  1
*
  0
XRECORD
  5
6A2
102
{ACAD_REACTORS
330
630
102
}
330
630
100
AcDbXrecord
280
     1
  1
OFF
  1
*
  1
*
  1
*
 70
     4
  1
*
  1
*
  0
XRECORD
  5
6A3
102
{ACAD_REACTORS
330
630
102
}
330
630
100
AcDbXrecord
280
     1
  1
ombre
  1
*ombr*
  1
*
  1
*
 70
     0
  1
*
  1
*
  0
XRECORD
  5
6A4
102
{ACAD_REACTORS
330
630
102
}
330
630
100
AcDbXrecord
280
     1
  1
ON
  1
*x*
  1
*
  1
*
 70
    13
  1
*
  1
*
  0
XRECORD
  5
6A5
102
{ACAD_REACTORS
330
630
102
}
330
630
100
AcDbXrecord
280
     1
  1
OXY-VERDE
  1
*
  1
*3
  1
*
 70
     0
  1
*
  1
*
  0
XRECORD
  5
6A6
102
{ACAD_REACTORS
330
630
102
}
330
630
100
AcDbXrecord
280
     1
  1
P
  1
P-*-96
  1
*
  1
*
 70
     0
  1
*
  1
*
  0
XRECORD
  5
6A7
102
{ACAD_REACTORS
330
630
102
}
330
630
100
AcDbXrecord
280
     1
  1
P-LAYERS
  1
*P-*
  1
*
  1
*
 70
     0
  1
*
  1
*
  0
XRECORD
  5
6A8
102
{ACAD_REACTORS
330
630
102
}
330
630
100
AcDbXrecord
280
     1
  1
P-WALLS
  1
P|*WALL*,P|*GLAZ*,P|*DOOR*
  1
*
  1
*
 70
     0
  1
*
  1
*
  0
XRECORD
  5
6A9
102
{ACAD_REACTORS
330
630
102
}
330
630
100
AcDbXrecord
280
     1
  1
P48
  1
P-*48
  1
*
  1
*
 70
     0
  1
*
  1
*
  0
XRECORD
  5
6AA
102
{ACAD_REACTORS
330
630
102
}
330
630
100
AcDbXrecord
280
     1
  1
P96
  1
P-*96
  1
*
  1
*
 70
     0
  1
*
  1
*
  0
XRECORD
  5
6AB
102
{ACAD_REACTORS
330
630
102
}
330
630
100
AcDbXrecord
280
     1
  1
PAPER
  1
*PAPER*
  1
*
  1
*
 70
     0
  1
*
  1
*
  0
XRECORD
  5
6AC
102
{ACAD_REACTORS
330
630
102
}
330
630
100
AcDbXrecord
280
     1
  1
parcheggio
  1
*parc*
  1
*
  1
*
 70
     0
  1
*
  1
*
  0
XRECORD
  5
6AD
102
{ACAD_REACTORS
330
630
102
}
330
630
100
AcDbXrecord
280
     1
  1
pav
  1
*
  1
*
  1
*
 70
     0
  1
*
  1
*
  0
XRECORD
  5
6AE
102
{ACAD_REACTORS
330
630
102
}
330
630
100
AcDbXrecord
280
     1
  1
PEGC
  1
*PEGC
  1
*
  1
*
 70
     0
  1
*
  1
*
  0
XRECORD
  5
6AF
102
{ACAD_REACTORS
330
630
102
}
330
630
100
AcDbXrecord
280
     1
  1
PEGCT
  1
*PECGT
  1
*
  1
*
 70
     0
  1
*
  1
*
  0
XRECORD
  5
6B0
102
{ACAD_REACTORS
330
630
102
}
330
630
100
AcDbXrecord
280
     1
  1
PGRIDT
  1
*PGRIDT
  1
*
  1
*
 70
     0
  1
*
  1
*
  0
XRECORD
  5
6B1
102
{ACAD_REACTORS
330
630
102
}
330
630
100
AcDbXrecord
280
     1
  1
PIPE
  1
*pipe*
  1
*
  1
*
 70
     0
  1
*
  1
*
  0
XRECORD
  5
6B2
102
{ACAD_REACTORS
330
630
102
}
330
630
100
AcDbXrecord
280
     1
  1
PIT
  1
G|*
  1
*
  1
*
 70
     0
  1
*
  1
*
  0
XRECORD
  5
6B3
102
{ACAD_REACTORS
330
630
102
}
330
630
100
AcDbXrecord
280
     1
  1
PL
  1
P-*
  1
*
  1
*
 70
     0
  1
*
  1
*
  0
XRECORD
  5
6B4
102
{ACAD_REACTORS
330
630
102
}
330
630
100
AcDbXrecord
280
     1
  1
plan
  1
*plan*
  1
*
  1
*
 70
     0
  1
*
  1
*
  0
XRECORD
  5
6B5
102
{ACAD_REACTORS
330
630
102
}
330
630
100
AcDbXrecord
280
     1
  1
PLATFM
  1
*S-COL-PLATFM
  1
*
  1
*
 70
     0
  1
*
  1
*
  0
XRECORD
  5
6B6
102
{ACAD_REACTORS
330
630
102
}
330
630
100
AcDbXrecord
280
     1
  1
PLMG
  1
P-*
  1
*
  1
*
 70
     0
  1
*
  1
*
  0
XRECORD
  5
6B7
102
{ACAD_REACTORS
330
630
102
}
330
630
100
AcDbXrecord
280
     1
  1
PLUMB
  1
P-*
  1
*
  1
*
 70
     0
  1
*
  1
*
  0
XRECORD
  5
6B8
102
{ACAD_REACTORS
330
630
102
}
330
630
100
AcDbXrecord
280
     1
  1
PPIPE
  1
P-*PIPE*
  1
*
  1
*
 70
     0
  1
*
  1
*
  0
XRECORD
  5
6B9
102
{ACAD_REACTORS
330
630
102
}
330
630
100
AcDbXrecord
280
     1
  1
primo
  1
bollini
  1
*
  1
*
 70
     0
  1
*
  1
*
  0
XRECORD
  5
6BA
102
{ACAD_REACTORS
330
630
102
}
330
630
100
AcDbXrecord
280
     1
  1
PRISR
  1
P-*RISR*
  1
*
  1
*
 70
     0
  1
*
  1
*
  0
XRECORD
  5
6BB
102
{ACAD_REACTORS
330
630
102
}
330
630
100
AcDbXrecord
280
     1
  1
proiez
  1
*proiez*
  1
*
  1
*
 70
     0
  1
*
  1
*
  0
XRECORD
  5
6BC
102
{ACAD_REACTORS
330
630
102
}
330
630
100
AcDbXrecord
280
     1
  1
RAIL
  1
*HRAL*
  1
*
  1
*
 70
     0
  1
*
  1
*
  0
XRECORD
  5
6BD
102
{ACAD_REACTORS
330
630
102
}
330
630
100
AcDbXrecord
280
     1
  1
RCP
  1
*RCP*
  1
*
  1
*
 70
     0
  1
*
  1
*
  0
XRECORD
  5
6BE
102
{ACAD_REACTORS
330
630
102
}
330
630
100
AcDbXrecord
280
     1
  1
rd
  1
rd*
  1
*
  1
*
 70
     0
  1
*
  1
*
  0
XRECORD
  5
6BF
102
{ACAD_REACTORS
330
630
102
}
330
630
100
AcDbXrecord
280
     1
  1
RED
  1
*
  1
1
  1
*
 70
    12
  1
*
  1
*
  0
XRECORD
  5
6C0
102
{ACAD_REACTORS
330
630
102
}
330
630
100
AcDbXrecord
280
     1
  1
RISR
  1
P-*RISR
  1
*
  1
*
 70
     0
  1
*
  1
*
  0
XRECORD
  5
6C1
102
{ACAD_REACTORS
330
630
102
}
330
630
100
AcDbXrecord
280
     1
  1
roof
  1
*roof*
  1
*
  1
*
 70
     0
  1
*
  1
*
  0
XRECORD
  5
6C2
102
{ACAD_REACTORS
330
630
102
}
330
630
100
AcDbXrecord
280
     1
  1
ROSSO
  1
*
  1
RED
  1
*
 70
     0
  1
*
  1
*
  0
XRECORD
  5
6C3
102
{ACAD_REACTORS
330
630
102
}
330
630
100
AcDbXrecord
280
     1
  1
ROTAIA
  1
*
  1
*
  1
*
 70
     0
  1
*
  1
*
  0
XRECORD
  5
6C4
102
{ACAD_REACTORS
330
630
102
}
330
630
100
AcDbXrecord
280
     1
  1
RR_SWITCH
  1
*
  1
*
  1
*
 70
     0
  1
*
  1
*
  0
XRECORD
  5
6C5
102
{ACAD_REACTORS
330
630
102
}
330
630
100
AcDbXrecord
280
     1
  1
sc
  1
*sc*
  1
*
  1
*
 70
     0
  1
*
  1
*
  0
XRECORD
  5
6C6
102
{ACAD_REACTORS
330
630
102
}
330
630
100
AcDbXrecord
280
     1
  1
scalehidden
  1
*scale*
  1
*
  1
*
 70
     0
  1
*
  1
*
  0
XRECORD
  5
6C7
102
{ACAD_REACTORS
330
630
102
}
330
630
100
AcDbXrecord
280
     1
  1
SH
  1
*SHE*
  1
*
  1
*
 70
     0
  1
*
  1
*
  0
XRECORD
  5
6C8
102
{ACAD_REACTORS
330
630
102
}
330
630
100
AcDbXrecord
280
     1
  1
Sottile
  1
* Sottile
  1
*
  1
*
 70
     0
  1
*
  1
*
  0
XRECORD
  5
6C9
102
{ACAD_REACTORS
330
630
102
}
330
630
100
AcDbXrecord
280
     1
  1
sottili
  1
*s
  1
*
  1
*
 70
     0
  1
*
  1
*
  0
XRECORD
  5
6CA
102
{ACAD_REACTORS
330
630
102
}
330
630
100
AcDbXrecord
280
     1
  1
SPENTI
  1
*
  1
*
  1
*
 70
     3
  1
*
  1
*
  0
XRECORD
  5
6CB
102
{ACAD_REACTORS
330
630
102
}
330
630
100
AcDbXrecord
280
     1
  1
STAPTS
  1
*STAPTS
  1
*
  1
*
 70
     0
  1
*
  1
*
  0
XRECORD
  5
6CC
102
{ACAD_REACTORS
330
630
102
}
330
630
100
AcDbXrecord
280
     1
  1
strade
  1
*strade*
  1
*
  1
*
 70
     0
  1
*
  1
*
  0
XRECORD
  5
6CD
102
{ACAD_REACTORS
330
630
102
}
330
630
100
AcDbXrecord
280
     1
  1
struct
  1
s-*
  1
*
  1
*
 70
     0
  1
*
  1
*
  0
XRECORD
  5
6CE
102
{ACAD_REACTORS
330
630
102
}
330
630
100
AcDbXrecord
280
     1
  1
SUR
  1
*SUR*
  1
*
  1
*
 70
     0
  1
*
  1
*
  0
XRECORD
  5
6CF
102
{ACAD_REACTORS
330
630
102
}
330
630
100
AcDbXrecord
280
     1
  1
temp
  1
*
  1
*
  1
*
 70
     7
  1
*
  1
*
  0
XRECORD
  5
6D0
102
{ACAD_REACTORS
330
630
102
}
330
630
100
AcDbXrecord
280
     1
  1
test
  1
*
  1
*
  1
*
 70
    13
  1
*
  1
*
  0
XRECORD
  5
6D1
102
{ACAD_REACTORS
330
630
102
}
330
630
100
AcDbXrecord
280
     1
  1
testi
  1
*test*
  1
*
  1
*
 70
     0
  1
*
  1
*
  0
XRECORD
  5
6D2
102
{ACAD_REACTORS
330
630
102
}
330
630
100
AcDbXrecord
280
     1
  1
transito
  1
*trans*
  1
*
  1
*
 70
     0
  1
*
  1
*
  0
XRECORD
  5
6D3
102
{ACAD_REACTORS
330
630
102
}
330
630
100
AcDbXrecord
280
     1
  1
tratt
  1
*tratt*
  1
*
  1
*
 70
     0
  1
*
  1
*
  0
XRECORD
  5
6D4
102
{ACAD_REACTORS
330
630
102
}
330
630
100
AcDbXrecord
280
     1
  1
trattegg
  1
*
  1
*
  1
*
 70
     0
  1
*
  1
*
  0
XRECORD
  5
6D5
102
{ACAD_REACTORS
330
630
102
}
330
630
100
AcDbXrecord
280
     1
  1
tratteggiate
  1
*d
  1
*
  1
*
 70
     0
  1
*
  1
*
  0
XRECORD
  5
6D6
102
{ACAD_REACTORS
330
630
102
}
330
630
100
AcDbXrecord
280
     1
  1
TRATTEGGIO
  1
*
  1
*
  1
*
 70
     0
  1
*
  1
*
  0
XRECORD
  5
6D7
102
{ACAD_REACTORS
330
630
102
}
330
630
100
AcDbXrecord
280
     1
  1
Tratti
  1
* Tratti
  1
*
  1
*
 70
     0
  1
*
  1
*
  0
XRECORD
  5
6D8
102
{ACAD_REACTORS
330
630
102
}
330
630
100
AcDbXrecord
280
     1
  1
TWO
  1
2|*
  1
*
  1
*
 70
     0
  1
*
  1
*
  0
XRECORD
  5
6D9
102
{ACAD_REACTORS
330
630
102
}
330
630
100
AcDbXrecord
280
     1
  1
TX
  1
F*TEXT*
  1
*
  1
*
 70
     0
  1
*
  1
*
  0
XRECORD
  5
6DA
102
{ACAD_REACTORS
330
630
102
}
330
630
100
AcDbXrecord
280
     1
  1
TXT
  1
P-*TEXT*
  1
*
  1
*
 70
     0
  1
*
  1
*
  0
XRECORD
  5
6DB
102
{ACAD_REACTORS
330
630
102
}
330
630
100
AcDbXrecord
280
     1
  1
U-POLE
  1
*
  1
*
  1
*
 70
     0
  1
*
  1
*
  0
XRECORD
  5
6DC
102
{ACAD_REACTORS
330
630
102
}
330
630
100
AcDbXrecord
280
     1
  1
UL
  1
*
  1
*7*
  1
*
 70
    13
  1
*
  1
*
  0
XRECORD
  5
6DD
102
{ACAD_REACTORS
330
630
102
}
330
630
100
AcDbXrecord
280
     1
  1
upole
  1
*
  1
*
  1
*
 70
     0
  1
*
  1
*
  0
XRECORD
  5
6DE
102
{ACAD_REACTORS
330
630
102
}
330
630
100
AcDbXrecord
280
     1
  1
V
  1
*VENT*
  1
*
  1
*
 70
     0
  1
*
  1
*
  0
XRECORD
  5
6DF
102
{ACAD_REACTORS
330
630
102
}
330
630
100
AcDbXrecord
280
     1
  1
vetrate
  1
*vetr*
  1
*
  1
*
 70
     0
  1
*
  1
*
  0
XRECORD
  5
6E0
102
{ACAD_REACTORS
330
630
102
}
330
630
100
AcDbXrecord
280
     1
  1
WALL
  1
*WAL*
  1
*
  1
*
 70
     0
  1
*
  1
*
  0
XRECORD
  5
6E1
102
{ACAD_REACTORS
330
630
102
}
330
630
100
AcDbXrecord
280
     1
  1
WALLS
  1
*WALL*
  1
*
  1
*
 70
     0
  1
*
  1
*
  0
XRECORD
  5
6E2
102
{ACAD_REACTORS
330
630
102
}
330
630
100
AcDbXrecord
280
     1
  1
WIN
  1
*WIN*
  1
*
  1
*
 70
     0
  1
*
  1
*
  0
XRECORD
  5
6E3
102
{ACAD_REACTORS
330
630
102
}
330
630
100
AcDbXrecord
280
     1
  1
X
  1
*st*
  1
*
  1
*
 70
     0
  1
*
  1
*
  0
XRECORD
  5
6E4
102
{ACAD_REACTORS
330
630
102
}
330
630
100
AcDbXrecord
280
     1
  1
XESITE
  1
XESITE*
  1
*
  1
*
 70
     0
  1
*
  1
*
  0
XRECORD
  5
6E5
102
{ACAD_REACTORS
330
630
102
}
330
630
100
AcDbXrecord
280
     1
  1
XREF
  1
*XREF*
  1
*
  1
*
 70
     0
  1
*
  1
*
  0
XRECORD
  5
6E6
102
{ACAD_REACTORS
330
630
102
}
330
630
100
AcDbXrecord
280
     1
  1
XS
  1
*XS*
  1
*
  1
*
 70
     0
  1
*
  1
*
  0
XRECORD
  5
6E7
102
{ACAD_REACTORS
330
630
102
}
330
630
100
AcDbXrecord
280
     1
  1
xsect
  1
xsect*
  1
*
  1
*
 70
     0
  1
*
  1
*
  0
XRECORD
  5
6E8
102
{ACAD_REACTORS
330
630
102
}
330
630
100
AcDbXrecord
280
     1
  1
Y
  1
Y|*
  1
*
  1
*
 70
     0
  1
*
  1
*
  0
XRECORD
  5
6E9
102
{ACAD_REACTORS
330
630
102
}
330
630
100
AcDbXrecord
280
     1
  1
Z
  1
Z|*
  1
*
  1
*
 70
     0
  1
*
  1
*
  0
ENDSEC
  0
EOF
